Smile Empty Soul - Finding Myself Chords & Tabs

 

Finding Myself Chords & Tabs

Smile Empty Soul Chords & Tabs

Version: 2 Type: Tab 0 ratings
1 star 2 stars 3 stars 4 stars 5 stars
comments

Finding Myself Tab

Tuning: Drop C- Drop Guitar down 1 whole Step then drop bottom D to C
Tabbed by: Big Chris Beach
/= Slide

Intro

D-------------------------------------------------------------------------
A----------0-------0-------0---------5------------------------------------
F----------------------------------5--------------------------------------
C--------7------5-------2--------5---------------(X2)---------------------
G------7------5-------2--------3------------------------------------------
C----7------5-------2-----------------------------------------------------

Verse 1

---------------------------------------------------------------------------
---------------------------------------------------------------------------
------------------------------------5----------55--------------------------
--777----5-----------55----222------5-ring out-55----(x5)------------------
--777----5--ring out-55----222------3----------33--------------------------
--777----5-----------55----222---------------------------------------------

Chorus

---------------------------------------------------------------------------
---------------------------------------------------------------------------
---------5555-------------------------5555----------5555-------------------
-7777----5555--2222---/-5555---7777---5555---2222---5555------(x2)---------
-7777----3333--2222--/--5555---7777---3333---2222---3333-------------------
-7777----------2222-/---5555---7777----------2222--------------------------

Interlude
[ Tab from: http://www.guitartabs.cc/tabs/s/smile_empty_soul/finding_myself_tab_ver_2.html ]
----------------------------------------------------------------------------
---------0--------0--------0--------5---------------------------------------
----------------------------------5-----------------------------------------
------7-------5--------2--------5----------(x1)-----------------------------
----7-------5--------2-------3----------------------------------------------
--7-------5--------2--------------------------------------------------------

verse-(x1)
chorus-(x2)

Interlude Solo

----------------------------------------------------------------------------
----------------------------------------------------------------------------
----------------------------------------------------------------------------
----9----9----9----10/9---9----9----9----9----9----9----9------(x1)---------
---7-7--7-7--7-7--7------7-7--7-7--7-7--7-7--7-7--7-7--7-7------------------
--7----7----7----7------7----7----7----7----7----7----7---------------------
                        some like you...someone like me
                        maybe.. it's change..that set you free...
verse-(x2)
Chorus-(x2)

After the chorus strum this chord 8 beats

------------
------------
----5-------
----5-------Then Chorus (x2)
----3-------
------------

Outro

-----------------------------------------------------------------------------
---------0------0-------0---------5------------------------------------------
--------------------------------5--------------------------------------------
------7------5-------2--------5----------------(x2)--------------------------
----7------5-------2-------3-------------------------------------------------
--7------5-------2-----------------------------------------------------------

That's it all the song done by the master, enjoy!!!!!1
This is my first tab and this song kicks ass!!!!! This song took only an hour to tab,
to get everything just perfect, the way I wanted it. So e-mail me for any corrections.
Thanks.
Comments