Smile Empty Soul - Eraser Chords & Tabs

 

Eraser Chords & Tabs

Smile Empty Soul Chords & Tabs

Version: 5 Type: Tab 0 ratings
1 star 2 stars 3 stars 4 stars 5 stars
comments

Eraser Tab

   
tabbed by: scott aka on ug Drainyou
song: eraser

I decided to clean this up and do the solo CORRECT, many thanks to guitarpsycho.
I have seans guitar set up posted below tab!!  by the way when i did Who i am by
ses move everything up a fret, i was tuned slightly off


Tuning: Drop D (Db Ab Db Gb Bb Eb)

Intro + Verse clean
eb|-------------------------------------------------------------------------|
Bb|-------------------------------------------------------------------------|
Gb|-6-6-6----------------4-4-4--6-6-6----------------4-4-4------------------|
Db|-6-6-6--7-7-7--4-4-4--4-4-4--6-6-6--7-7-7--4-4-4--4-4-4------------------|
Ab|-4-4-4--7-7-7--4-4-4--2-2-2--4-4-4--7-7-7--4-4-4--2-2-2------------------|
Db|--------7-7-7--4-4-4----------------7-7-7--4-4-4-------------------------|

Prechorus clean (and now its going great.......)
eb|----------------------------------------- -------------------------------|
Bb|-------------------------------------------------------------------------|
Gb|-9-9-11-11--12--12--12--12--9-9-11-11--12--12--12--12--------------------|
Db|-9-9-11-11--12--12--12--12--9-9-11-11--12--12--12--12--X2----------------|
Ab|-7-7--9--9--10--10--10--10--7-7--9--9--10--10--10--10--------------------|
Db|-------------------------------------------------------------------------|

Chorus (distortion)
eb|-------------------------------------------------------------------------|
Bb|-------------------------------------------------------------------------|
Gb|-6-6-6-4-4------------6-6-6-4-4------------------------------------------|
Db|-6-6-6-4-4-4-4-4-2-2--6-6-6-4-4-4-4-4-2-2--------------------------------|
Ab|-4-4-4-2-2-4-4-4-2-2--4-4-4-2-2-4-4-4-2-2----444-666-777-999-------------|
Db|-----------4-4-4-2-2------------4-4-4-2-2--------------------------------|

eb|----------------------|
Bb|----------------------|
Gb|-6-6-6-4-4------------|
Db|-6-6-6-4-4-4-4-4-2-2--|
Ab|-4-4-4-2-2-4-4-4-2-2--|
Db|-----------4-4-4-2-2--|
[ Tab from: http://www.guitartabs.cc/tabs/s/smile_empty_soul/eraser_tab_ver_5.html ]
Bridge clean (If I could see myself.....)  FLANGE!!!! lots
eb|-------------------------------------------------------------------------|
Bb|-------------------------------------------------------------------------|
Gb|-------------------------------------------------------------------------|
Db|-11-11-11-11--9-9-9-9--6-6-6-6-------------------------------------------|
Ab|-11-11-11-11--9-9-9-9--6-6-6-6---X2--------------------------------------|
Db|--9--9--9--9--7-7-7-7--4-4-4-4-------------------------------------------|

SOLO! distortion    (timing is off u figure it out)
eb|--------------------------------------------------------------------------|
Bb|---------17-17-17-16-----------------17-17-17-16--------------------------|
Gb|-9/13--13-----------9-9-8----9/13--13-----------9-9-8---------------------|
Db|--------------------------------------------------------------------------|
Ab|--------------------------------------------------------------------------|
Eb|--------------------------------------------------------------------------|


eb|--------------------------------------------------------------------------|
Bb|--9-10-12-10-9-10---------------------------------------------------------|
Gb|--------------------8-9-11-9-8-9---11/13-9--11/13-9---9-8-6-4-------------|
Db|--------------------------------------------------------------------------|
Ab|--------------------------------------------------------------------------|
Eb|--------------------------------------------------------------------------|

eb|----------------------|
Bb|----------------------|
Gb|-6-6-6-4-4------------|
Db|-6-6-6-4-4-4-5-10-----|
Ab|-4-4-4-2-2-4-5-10-----|
Db|-----------4-5-10-----|

   ending riff distortion
eb|-------------------------------------------------------------------------|
Bb|-------------------------------------------------------------------------|
Gb|-6-6-6----------------4-4-4--6-6-6----------------4-4-4------------------|
Db|-6-6-6--7-7-7--4-4-4--4-4-4--6-6-6--7-7-7--4-4-4--4-4-4------------------|
Ab|-4-4-4--7-7-7--4-4-4--2-2-2--4-4-4--7-7-7--4-4-4--2-2-2------------------|
Db|--------7-7-7--4-4-4----------------7-7-7--4-4-4-------------------------|

order of song:
intro/verse
prechorus
chorus
verse
chorus
bridge
solo
chorus
end riff

seans guitar set up, picked up from concerts and various pics:

guitar: schecter c1 elite
amp head: marshall jcm 2000 dsl
cabinet: marshall something
effects: line 6 pod pro
floorboardL line 6 floorboard
electrical protection: furman rackrider rr15 plus

ENJOI
Comments