Smile Empty Soul - Eraser Chords & Tabs

 

Eraser Chords & Tabs

Smile Empty Soul Chords & Tabs

Version: 4 Type: Tab 0 ratings
1 star 2 stars 3 stars 4 stars 5 stars
comments

Eraser Tab

   
-------------------------------------------------------------------------------
			     ERASER - Smile Empty Soul
-------------------------------------------------------------------------------
Tabbed by: Gashler
Email: Guitar_pyscho@hotmail.com

Tuning: Drop D (Eb Ab Db Gb Bb Eb)

Intro + Verse
eb|--------------------------------------------------------------------------|
Bb|--------------------------------------------------------------------------|
Gb|-6-6-6----------------4-4-4--6-6-6----------------4-4-4-------------------|
Db|-6-6-6--7-7-7--4-4-4--4-4-4--6-6-6--7-7-7--4-4-4--4-4-4-------------------|
Ab|-4-4-4--7-7-7--4-4-4--2-2-2--4-4-4--7-7-7--4-4-4--2-2-2-------------------|
Eb|--------5-5-5--2-2-2----------------5-5-5--2-2-2--------------------------|

Prechorus (and now its going great.......)
eb|--------------------------------------------------------------------------|
Bb|--------------------------------------------------------------------------|
Gb|-9-9-11-11--12--12--12--12--9-9-11-11--12--12--12--12---------------------|
Db|-9-9-11-11--12--12--12--12--9-9-11-11--12--12--12--12--X2-----------------|
Ab|-7-7--9--9--10--10--10--10--7-7--9--9--10--10--10--10---------------------|
Eb|--------------------------------------------------------------------------|
[ Tab from: http://www.guitartabs.cc/tabs/s/smile_empty_soul/eraser_tab_ver_4.html ]
Chorus
eb|--------------------------------------------------------------------------|
Bb|--------------------------------------------------------------------------|
Gb|-6-6-6-4-4-----------6-6-6-4-4--------------------------------------------|
Db|-6-6-6-4-4-4-4-4-2-2-6-6-6-4-4-4-4-4-2-2----------------------------------|
Ab|-4-4-4-2-2-4-4-4-2-2-4-4-4-2-2-4-4-4-2-2----X2----------------------------|
Eb|-----------2-2-2-0-0-----------2-2-2-0-0----------------------------------|

Bridge (If I could see myself.....)
eb|--------------------------------------------------------------------------|
Bb|--------------------------------------------------------------------------|
Gb|--------------------------------------------------------------------------|
Db|-11-11-11-11--9-9-9-9--6-6-6-6--------------------------------------------|
Ab|-11-11-11-11--9-9-9-9--6-6-6-6---X2---------------------------------------|
Eb|--9--9--9--9--7-7-7-7--4-4-4-4--------------------------------------------|

Solo
eb|---12-12-11-11-------------------------------------------------------------|
Bb|---------------------------------------------------------------------------|
Gb|---------------------------------------------------------------------------|
Db|-6-------------2-1--X2-6-7-9-7-6-7---1-2-4-2-4-6-4-2-6-4-2-6-4-2-1-2-1-----|
Ab|-----------------------------------4-----------------------------------4-2-|
Eb|---------------------------------------------------------------------------|

eb|------------------------------------------------------------------------|
Bb|------------------------------------------------------------------------|
Gb|-6-6-6------------------------------------------------------------------|
Db|-6-6-6--9-9-9-5-4-9-----------------------------------------------------|
Ab|-4-4-4--9-9-9-5-4-9-----------------------------------------------------|
Eb|--------7-7-7-3-2-7-----------------------------------------------------|

Intro
Verse
Prechorus
Chorus
Verse
Prechorus
Chorus
Bridge
Solo
Chorus
Comments