Smile Empty Soul - Eraser Chords & Tabs

 

Eraser Chords & Tabs

Smile Empty Soul Chords & Tabs

Version: 1 Type: Tab 1 rating
1 star 2 stars 3 stars 4 stars 5 stars
comments

Eraser Tab

   
Smile Empty Soul
Song : Eraser
Album : Smile Empty Soul
Tabbed by Rob Blake
Tuning  - DGCFAD (standard dropped a whole step)
i have wrote this tab totally in the order it is played, with only 1 guitar 
(listen to the track for the timings)
(x = mute)
(h = hammer on)
(p = pull off)
(/ = slide up)

INTRO/VERSE(0:00)
D|-----------x-x-----x-x-----------x-x-----x-x------------
A|-----------x-x-----x-x-----------x-x-----x-x------------
F|-6-6-6-6-6-x-x-----x-x-----------x-x-4-4-x-x------------
C|-6-6-6-6-6-x-x-7-7-x-x-4-4-4-4-4-x-x-4-4-x-x------------    X6
G|-4-4-4-4-4-x-x-7-7-x-x-4-4-4-4-4-x-x-2-2-x-x------------
D|-----------x-x-5-5-x-x-2-2-2-2-2-x-x-----x-x------------

PRE-CHORUS(0:34)
D|------------------------------------
A|------------------------------------
F|-----4-------4-------4-------4------
C|------------------------------------  X3
G|---2---2---2---2---2---2---2---2----
D|-0-------2-------3-------3----------

CHORUS pt.1 (distorted)(0:51)
D|-----------x-x-----x-x-----------x-x-----x-x-------------
A|-----------x-x-----x-x-----------x-x-----x-x-------------
F|-6-6-6-6-6-x-x-4-4-x-x-----------x-x-----x-x-------------
C|-6-6-6-6-6-x-x-4-4-x-x-4-4-4-4-4-x-x-2-2-x-x-------------  X2    
G|-4-4-4-4-4-x-x-2-2-x-x-4-4-4-4-4-x-x-2-2-x-x-------------
D|-----------x-x-----x-x-2-2-2-2-2-x-x-0-0-x-x-------------

CHORUS pt.2 (1:02)
D|----------------------------------------------------------------
A|----------------------------------------------------------------
F|----------------------------------------------------------------
C|---------------------------------------------------------------- X1  
G|-4-4-4-4-4-4-4-4-6-6-6-6-6-6-6-6-7-7-7-7-7-7-7-7-9-9-9-9-9-9-9-9
D|----------------------------------------------------------------

CHORUS pt.1 (1:07)
D|-----------x-x-----x-x-----------x-x-----x-x-------------
A|-----------x-x-----x-x-----------x-x-----x-x-------------
F|-6-6-6-6-6-x-x-----x-x-----------x-x-----x-x-------------
C|-6-6-6-6-6-x-x-7-7-x-x-4-4-4-4-4-x-x-2-2-x-x-------------  X1    
G|-4-4-4-4-4-x-x-7-7-x-x-4-4-4-4-4-x-x-2-2-x-x-------------
D|-----------x-x-5-5-x-x-2-2-2-2-2-x-x-0-0-x-x-------------

INTRO/VERSE (1:13) X6

PRE-CHORUS  (1:46) X3

CHORUS pt.1 (2:03) X2

CHORUS pt.2 (2:14) X1

CHORUS pt.1 (2:19) X1
[ Tab from: http://www.guitartabs.cc/tabs/s/smile_empty_soul/eraser_tab.html ]
BRIDGE pt.1(2:24)
D|-----------x-x----------
A|-----------x-x----------
F|-6-6-6-6-6-x-x-4-4------
C|-6-6-6-6-6-x-x-4-4------ X4 
G|-4-4-4-4-4-x-x-2-2------
D|-----------x-x----------

BRIDGE pt.2(2:36)
D|--------------------------------------------
A|--------------------------------------------
F|--------------------------------------------
C|-----4-------4-------4-------4-------------- X1
G|---4---4---4---4---4---4---4---4------------
D|-2-------2-------0-------0------------------

BRIDGE pt.1 (2:41) X2

BRIDGE pt.2 (2:47) X1

BRIDGE pt.1 (2:52) X2

SOLO (2:58)(quick picking) (may be played on 2 strings, im not sure)
D|-----------------------------------------------------------------
A|-9-9-9-9-9-9-9-9-9-9-9-9-9-9-9-9-5-5-5-5-5-5-5-5-4-4-4-4-4-4-4-4-
F|-----------------------------------------------------------------
C|----------------------------------------------------------------- X2
G|-----------------------------------------------------------------
D|-----------------------------------------------------------------

SOLO cont...
D|------------------------------------------------------------
A|-9-9-9-10--12--10--9-9h10-10-2-2-2-4-4-4-5-5-5-7--5-7/9-7-5-
F|------------------------------------------------------------
C|------------------------------------------------------------
G|------------------------------------------------------------
D|------------------------------------------------------------

SOLO cont...
D|-------------------------------------------------------------------------
A|-7/9-7-5-7/9-7-5-4h5p4-2--2-0--0-0-0-0-----------------------------------
F|----------------------------------------6-6-6-6-6-x-x-4-4-x-x-------6----
C|----------------------------------------6-6-6-6-6-x-x-4-4-x-x-2--4--6----
G|----------------------------------------4-4-4-4-4-x-x-2-2-x-x-2--4--4----
D|--------------------------------------------------------------0--2-------

CHORUS pt.1 (3:26) X2

CHORUS pt.2 (3:37) X1

CHORUS pt.1 (3:42) X1

END (3:47)                                                         END ON (let ring)
D|-----------x-x-----x-x-----------x-x-----x-x-------------       ---
A|-----------x-x-----x-x-----------x-x-----x-x-------------       ---
F|-6-6-6-6-6-x-x-----x-x-----------x-x-4-4-x-x-------------       -6-
C|-6-6-6-6-6-x-x-7-7-x-x-4-4-4-4-4-x-x-4-4-x-x-------------  X2   -6-  
G|-4-4-4-4-4-x-x-7-7-x-x-4-4-4-4-4-x-x-2-2-x-x-------------       -4-
D|-----------x-x-5-5-x-x-2-2-2-2-2-x-x-----x-x-------------       ---
Comments