Smile Empty Soul - Bottom Of A Bottle Chords & Tabs

 

Bottom Of A Bottle Chords & Tabs

Smile Empty Soul Chords & Tabs

Version: 7 Type: Tab 0 ratings
1 star 2 stars 3 stars 4 stars 5 stars
comments

Bottom Of A Bottle Tab

   
Tuning: (low to high) Db Ab Db Gb Bb Eb

i cant get the first part of the intro so ill skip

part of the intro:
eb------------------------------------
bb------------------------------------
gb-----5--5-5-------------------------    X4
db-2-0-5--5-5-5--5/7--7-7-xx-7/9-9/7-5
ab-2-0-3--3-3-5--5/7--7-7-xx-7/9-9/7-5
db-2-0--------5--5/7--7-7-xx-7/9-9/7-5

Verse

eb-------------------------------------
bb-------------------------------------
gb-------------------------------------
db-------------------------------------
ab------3--3-3-------------------------
db--2-0--------5--5/7--7-7-xx-7/9-9/7-5


chorus
[ Tab from: http://www.guitartabs.cc/tabs/s/smile_empty_soul/bottom_of_a_bottle_tab_ver_7.html ]
eb------------------------------
bb------------------------------
gb----------------2-2-5---5-5555
db-2-2-0---0-0000-2-2-5---5-5555
ab-2-2-0---0-0000-0-0-3---3-3333
db-2-2-0---0-0000---------------


bridge

eb----------------------------------------------------------------
bb----------------------------------------------------------------
gb---------------------------------------------5---------5-5-5-5-5
db---------------------------------5-5-5-5-5-5-5-5-5-5-5-5-5-5-5-5
Ab-2-2-2-2-2-2-2-2/5-5-5-5-5-5-5-5-3-3-3-3-3-3-3-3-3-3-3-3-3-3-3-3
db-2-2-2-2-2-2-2-2/5-5-5-5-5-5-5-5--------------------------------

on final part of bridge instead of the last two strums of the 53 play xx
Comments