Smashing Pumpkins - Zero Chords & Tabs

 

Zero Chords & Tabs

Smashing Pumpkins Chords & Tabs

Version: 1 Type: Chords 0 ratings
1 star 2 stars 3 stars 4 stars 5 stars
comments

Zero Chords

zero
smashing pumpkins

I think the tab posted by dee@berkshire.net is sort of incorrect. 
Here is my version.
Drop tuning by one half.

Intro & Verse:
[ Tab from: http://www.guitartabs.cc/tabs/s/smashing_pumpkins/zero_crd.html ]
G|------------------------------------|
D|*----------------------------------*|
A|*--3/2-2---------3-3/2-2-----------*|
E|---------0-0-0-0---------0-0-0-0-0--|

Chorus:
(heres where the most of the changes are)

G|--------------------------------------|
D|*------------------------------------*|
A|*--7-----9-----7-----10-----9---5----*|
E|-----0-0---0-0---0-0----0-0---0---0---|

Fancy.

email me at goldfinger@ibm.net
(post more goldfinger tabs)
Comments