Smashing Pumpkins - Tonight Tonight Chords & Tabs

 

Tonight Tonight Chords & Tabs

Smashing Pumpkins Chords & Tabs

Version: 1 Type: Tab 0 ratings
1 star 2 stars 3 stars 4 stars 5 stars
comments

Tonight Tonight Tab

Song- Tonight, Tonight
Artist- The Smashing Pumpkins
Album- Mellon Collie And The Infinite Sadness
Transcribed By- Danny Casey-Tancock

Intro: -
e------------------------------------------0--1--2------1------------
B------------------------------------------1--0--3------0------------
G------------------------------------------0--0--2------0------------
D------------------------------------------2--0--0------0------------
A-2----2----2----2----2---2----2----2------3--2--X------2------------
E-3----0----3----0----3---0----3----0------0--3--X------3------------
 X16  X16  X16  X16  X16 X16  X16  X16       X3
[ Tab from: http://www.guitartabs.cc/tabs/s/smashing_pumpkins/tonight_tonight_tab.html ]
Verse1
-------------------------------------
--0-----0-----------0------0---------
----0-----0---0-------0------0---0---
-------------------------------------
-3----3-----3----5------5------5-----
-------------------------------------
                X12
Chorus
-0--1--2---------0--1--2---------0--1--2----------0--1--2---1---------
-1--0--3---------1--0--3---------1--0--3----------1--0--3---0---------
-0--0--2---------0--0--2---------0--0--2----------0--0--2---0---------
-2--0--0---------2--0--0---------2--0--0----------2--0--0---0---------
-3--2--X--2--2---3--2--X--2--2---3--2--X---2--2---3--2--X---2---------
-0--3--X--3--0---0--3--X--3--0---0--3--X---3--0---0--3--X---3---------
         x8 x8           x8 x16     x3    x8 x16    x3

Verse2
------------
------------
------------  Do this three times
------------
---2---2----
---3---0----
  x32 x32 

Chorus2
-------------------------------------
--0-----0-----------0------0---------
----0-----0---0-------0------0---0---
-------------------------------------
-3----3-----3----5------5------5-----
-------------------------------------
                x3

-0--1--2---------0--1--2---------0--1--2----------0--1--2--
-1--0--3---------1--0--3---------1--0--3----------1--0--3--
-0--0--2---------0--0--2---------0--0--2----------0--0--2--
-2--0--0---------2--0--0---------2--0--0----------2--0--0--
-3--2--X--2--2---3--2--X--2--2---3--2--X---2--2---3--2--X--
-0--3--X--3--0---0--3--X--3--0---0--3--X---3--0---0--3--X--
         x8 x8           x8  x8     x3    x8 x8

------------
------------
------------  Do this eleven times
------------
---2---2----
---3---0----
  x8  x8

Outro

-------------------------------------
--0-----0-----------0------0---------
----0-----0---0-------0------0---0---
-------------------------------------
-3----3-----3----5------5------5-----
-------------------------------------
                x3 (slowly)

-0--1--2-
-1--0--3-
-0--0--2-
-2--0--0-
-3--2--X-
-0--3--X-


Comments