Smashing Pumpkins - Today Chords & Tabs

 

Today Chords & Tabs

Smashing Pumpkins Chords & Tabs

Version: 3 Type: Tab 0 ratings
1 star 2 stars 3 stars 4 stars 5 stars
comments

Today Tab

Tabbed by:Cone.....(Thrashaguitar41@aol)
Song:today

P=pull off


----------12--14---12--16p12-----
-----------12--12---12------12---      (repeat as nesscery)\
---------------------------------
---------------------------------
---------------------------------
---------------------------------



Verse(after intro)

----------------------------------------
B----------------------------------------
G---8-8-8-8------------------------------
D---8-8-8-8-8-8-8-8-6-6-6-6-6-6-6-6------
A---6-6-6-6-8-8-8-8-6-6-6-6-6-6-6-6------
E-----------6-6-6-6-4-4-4-4-4-4-4-4------

the second guitar riff is then carried on through the verse but when it it is 
going into the chorus play this:

E----------------------------------------------
B----------------------------------------------
G-8-8-8-8--------------------------------------
D-8-8-8-8-8-8-8-8-10-10-10-10-10-10-10-10------
A-6-6-6-6-8-8-8-8-10-10-10-10-10-10-10-10------
E---------6-6-6-6-8--8--8--8--8--8--8--8-------

Chorus 1, heavy distortion...
E-----------------------------------
B-----------------------------------
G------------------------------3b---  
A-3-3-3-3-6-6-6-6-10-10-10-10-------
D-3-3-3-3-6-6-6-6-10-10-10-10-------        
E-1-1-1-1-4-4-4-4-8--8--8--8--------

this is repeated through the chorus but ont he seond time of each part there 
is no bend and both guitars play the same.


Chorus 2:
[ Tab from: http://www.guitartabs.cc/tabs/s/smashing_pumpkins/today_tab_ver_3.html ]
E------------------------------------
B------------------------------------
G------------------------------------
D--3-3-3-3-6-6-6-6-2-2-2-2-4-4-4-4---
A--3-3-3-3-6-6-6-6-2-2-2-2-4-4-4-4---
E--1-1-1-1-4-4-4-4-0-0-0-0-2-2-2-2---

then after the second chorus go into this:

E------------------------------------------------------------
B------------------------------------------------------------
G-8-8-8-8---------8-8-8-8------------------------------------
D-8-8-8-8-8-8-8-8-8-8-8-8-6-6-6-6--do this twice-------------
A-6-6-6-6-8-8-8-8-6-6-6-6-6-6-6-6----------------------------
E---------6-6-6-6---------4-4-4-4----------------------------

E---------------------------------------------------------
B---------------------------------------------------------
G--8-8-8-8------------------------------------------------
D--8-8-8-8-8-8-8-8-10-10-10-10-6-6-6-6--------------------
A--6-6-6-6-8-8-8-8-10-10-10-10-6-6-6-6-twice--------------
E----------6-6-6-6-8--8--8--8--4-4-4-4--------------------

Repeat the first chorus
E-----------------------------------
B-----------------------------------
G------------------------------3b---  
D-3-3-3-3-6-6-6-6-10-10-10-10-------    
A-3-3-3-3-6-6-6-6-10-10-10-10-------    
E-1-1-1-1-4-4-4-4-8--8--8--8--------

then finish with the first guitar playin the intro again while then second guitar 
plays:

E---------------------------------------------------------
B---------------------------------------------------------
G--8-8-8-8------------------------------------------------
D--8-8-8-8-8-8-8-8-10-10-10-10-6-6-6-6--------------------
A--6-6-6-6-8-8-8-8-10-10-10-10-6-6-6-6--------------------
E----------6-6-6-6-8--8--8--8--4-4-4-4--------------------


Thank you,thank you oh yeah thank Scoobysnacks121 for corrections thanks dude,
oh yeah,,,member,.........ROCK ON!!!!!!!!!!!
Comments