Smashing Pumpkins - The Everlasting Gaze Chords & Tabs

 

The Everlasting Gaze Chords & Tabs

Smashing Pumpkins Chords & Tabs

Version: 2 Type: Tab 0 ratings
1 star 2 stars 3 stars 4 stars 5 stars
comments

The Everlasting Gaze Tab

   
name: Jeremy Skeen

artist: The Smashing Pumpkins

SongTitle: The Everlasting Gaze

Tabs: The Smashing Pumpkins
The Everlasting Gaze
Machina/The Machines of God

Figured out by: Jeremy Skeen!!

This the correct way to play this song, the other versions I've seen 
are wrong!! 

Tune down 2 whole steps (C F Bb Eb G C)

chords:
Gadd6  2x0000
Dsus2  xx0230
Asus2  x02200
Csus2  x30033

Intro:
|--------------------
|--------------------
|--------------------     repeat
|--------------------
|--------2-3---------
|----0-0-----1---1-0-

then,


|----------------------------------5-5-5-5-5----------
|----------------------------------0-0-0-0-0----------
|-----------------------------------------------------  etc.
|-----------------------------------------------------
|-------------2-3-------------------------------------
|--13/----0-0-----1--1-0------------------------------
                              "You know I'm not dead"


You don't play anything during the verse.

prechorus:
[ Tab from: http://www.guitartabs.cc/tabs/s/smashing_pumpkins/the_everlasting_gaze_tab_ver_2.html ]
|-------------------------
|-------------------------
|----------------------2--
|---------0---------------
|-----2-----0-------------
|---0----------0-3--0-1---

Chorus:

Gadd6        Dsus2              Asus2      Gadd6  Dsus2
     On the ways of your desire,  you always find a way

Asus2                   Gadd6       Dsus2
     And through it all, into us all you move

Asus2       Csus2           Asus2
            Forgotten touch, forbidden thought
     
      Gadd6       Dsus2      Asus2  
     We can never have enough

Outro:

|-------------------------------
|-------------------------------
|-------------------------------
|-------------------------------
|-------------------------------
|-----0-0---0-0---0-0---0-0-0-0-

Then,

|-----------------------------------
|-----------------------------------
|-----------2-----------------------
|-------------------0-2---0-2-------
|-------------------------------3-2-
|---0-0---0-----0-0-----0-----0-----

That's it! Your free to tell me what you think!!


Comments