Smashing Pumpkins - Suffer Chords & Tabs

 

Suffer Chords & Tabs

Smashing Pumpkins Chords & Tabs

Version: 2 Type: Bass Tab 0 ratings
1 star 2 stars 3 stars 4 stars 5 stars
comments

Suffer Bass Tab

   
Title: Suffer
Artist: Smashing Pumpkins
Album: Gish
Tuning: E A D G

Riff 1
G|---------------|
D|---------------|
A|5----3-5----5--|
E|---------------|

Hold an occasional C. Last time slide up to an F#

when he says "All may say...." go to this
Riff 2
G|--7---------------------------|
D|----5-7----------------7h9----|
A|5-------8--8-8-7--7-7h-----7--|
E|------------------------------|

At "too late to suffer... Play:
G|---------------|
D|---------------|
A|3-2--3-2--3-2--|
E|---------------|
[ Tab from: http://www.guitartabs.cc/tabs/s/smashing_pumpkins/suffer_btab_ver_2.html ]
When the guitars play the quite scale part play:
Riff3
G|-----------------------|
D|------10-12------------|
A|10-12-------10-8-------|
E|-----------------8-10--|

Hold a C when it goes down then a fast G and 
slide up. Last time go up to D.

Riff 3 occasional fill:
G|---------------------------|
D|---------------------------|
A|--7-8-10--12--10-12-10-12--|
E|8--------------------------|

And thats all their is to it.

--------------
Tab was made by: Nathan Amber, take it if you want it...just enjoy..
hope you like it!! E-mail me if you have a better way of playing it!




Comments