Smashing Pumpkins - Stand Inside Your Love Chords & Tabs

 

Stand Inside Your Love Chords & Tabs

Smashing Pumpkins Chords & Tabs

Version: 1 Type: Tab 0 ratings
1 star 2 stars 3 stars 4 stars 5 stars
comments

Stand Inside Your Love Tab

   
Stand Inside Your Love - Smashing Pumpkins 

Tabbed by Adam Bishop 

Tune down half a step 

G - 3x0033 
Gmaj7 - 3x0032 
D - xx0232 
A - x02220 
Em7 - 022030 


Main riff: 
Eb|-------------------------------------------------------------------- 
Bb|-----3--------3--------3--------3-----3--------3--------3--------3-- 
Gb|--------0--------0-----------0-----------0--------0-----------0----- 
Db|--4--------4--------4--------------4--------4--------4-------------- 
Ab|-------------------------------------------------------------------- 
Eb|--------------------------0--------------------------------0-------- 

Eb|--------------------------------------------------0----------------- 
Bb|-----3--------3-----------------------3-----------0----------------- 
Gb|--------2--------2-----2--------2--------2-------------------------- 
Db|-----------0--------0--------2--------------0----------------------- 
Ab|--2-----------------------0--------2-----------0-------------------- 
Eb|-------------------------------------------------------------------- 


Intro: play main riff twice 

You and me 
Meant to be 
Immutable 
Impossible 
It's destiny 
Pure lunacy 
Incalculable 
Insufferable 
[ Tab from: http://www.guitartabs.cc/tabs/s/smashing_pumpkins/stand_inside_your_love_tab.html ]
G Gmaj7 
But for the last time 
D A G Gmaj7 
You're everything that I want and ask for 
D A Em7 
You're all that I'd dreamed 
D A Em7 
Who wouldn't be the one you love 
D A Em7 
Who wouldn't stand inside your love 
D A Em7 
Protected and the love of 


A pure soul and beautiful you 
Don't understand 
Don't feel me now 
I will breathe 
For the both of us 
Travel the world 
Traverse the skies 
Your home is here 
Within my heart 

And for the first time 
I feel as though I am reborn 
In my mind 
Recast as child and mystic sage 
Who wouldn't be the one you love 
Who wouldn't stand inside your love 

(Riff 2 is played here) 

Solo (Em7-D-A) 

And for the first time 
I'm telling you how much I need and bleed for 
Your every move and waking sound 
In my time 
I'll wrap my wire around your heart and your mind 
You're mine forever now 
Who wouldn't be the one you love and live for 
Who wouldn't stand inside your love and die for 
Who wouldn't be the one you love 

End on Em7 


Riff 2: 
Eb|-------------------------------------------------------------------- 
Bb|-------------------------------------------------------------------- 
Gb|--12-12-12-12-12-12-12-12-12-12-12-12-12-12-12-12-11-11-11-11------- 
Db|--x--x--x--x--x--x--x--x--x--x--x--x--x--x--x--x--x--x--x--x-------- 
Ab|--10-10-10-10-10-10-10-10-10-10-10-10-10-10-10-10-9--9--9--9-------- 
Eb|-------------------------------------------------------------------- 

Eb|-------------------------------------------------------------------- 
Bb|-------------------------------------------------------------------- 
Gb|--11-11-11-11-7-7-7-7-7-7-7-7--------------------------------------- 
Db|--x--x--x--x--x-x-x-x-x-x-x-x--------------------------------------- 
Ab|--9--9--9--9--5-5-5-5-5-5-5-5--------------------------------------- 
Eb|-------------------------------------------------------------------- 
 
Comments