Smashing Pumpkins - Spaceboy Chords & Tabs

 

Spaceboy Chords & Tabs

Smashing Pumpkins Chords & Tabs

Version: 1 Type: Tab 0 ratings
1 star 2 stars 3 stars 4 stars 5 stars
comments

Spaceboy Tab

Tuning: Standard
/=slide up
\slide down

[ Tab from: http://www.guitartabs.cc/tabs/s/smashing_pumpkins/spaceboy_tab.html ]
e|--------------------------------------------------------
B|-0-------0--0----0----(0)-0-------0--0----0----(0)-0----
G|-0-------0--0----0----(0)-0-------0--0----0----(0)-0----
D|-3/5--5--5--5/9--9----(9)\3/5--5--5--5/9--9----(9)\3/5--
A|-3/5--5--5--5/9--9----(9)\3/5--5--5--5/9--9----(9)\3/5--
E|-1/3--3--3--3/7--7----(7)\1/3--3--3--3/7--7----(7)\1/3--

e|----------------------------0-----------0---------0-------0--0
B|----0--0----0-----0--0--0---0-----------0----0----0----0--0--0
G|----0--0----0-----0--0--0---0-------0---0----0----0----0--0--0
D|-5--5--5/9--9--7--7--7/10--10------10--10---10---10---10-10-10
A|-5--5--5/9--9--7--7--7/10--10--10--10--10---10---10---10-10-10
E|-3--3--3/7--7--0--5--0--8---8---8---8---8----8----8----8--8--8
Comments