Smashing Pumpkins - Soothe Chords & Tabs

 

Soothe Chords & Tabs

Smashing Pumpkins Chords & Tabs

Version: 1 Type: Tab 0 ratings
1 star 2 stars 3 stars 4 stars 5 stars
comments

Soothe Tab

-------------------------------------------------------------------------------
			     Soothe - Smashing Pumpkins
-------------------------------------------------------------------------------

Tabbed by: G.S

Tuning: Normal

Play in the following order

Lick 1 2x
Lick 2 2x
Lick 1 5x
Lick 2 5x

Lick#1
e|---------------------------------------------------------------------------|
B|-3-----3------3------------3---------3-------------------------------------|
G|---3-----3------3---3-------3------0---0---0---0---------------------------|
D|-1---1-1------1---1--------------1-------1---------------------------------|
A|-------------------------------3-------------------------------------------|
E|---------------------------------------------3---3-------------------------|
[ Tab from: http://www.guitartabs.cc/tabs/s/smashing_pumpkins/soothe_tab.html ]
lick#2
e|------3--------------------------------------------------------------------|
B|------------------3--------------------------------------------------------|
G|----3-1-3-------0---0---0--------------------------------------------------|
D|--1-------1---0-------0----------------------------------------------------|
A|1--------------------------------------------------------------------------|
E|------------3--------------------------------------------------------------|

Play this as the closing riff
e|-0x0-----------------------------------------------------------------------|
B|-3x3-3----3-----3----------------------------------------------------------|
G|-0x0---0--0----------------------------------------------------------------|
D|-0x0----------1------------------------------------------------------------|
A|-2x2------3-3--------------------------------------------------------------|
E|-3x3--------------3--------------------------------------------------------|
Comments