Smashing Pumpkins - Soma Chords & Tabs

 

Soma Chords & Tabs

Smashing Pumpkins Chords & Tabs

Version: 1 Type: Bass Tab 0 ratings
1 star 2 stars 3 stars 4 stars 5 stars
comments

Soma Bass Tab

Bass tab for:
The Smashing Pumpkins - Soma
>From the album 'Siamese Dream'
Written by Billy Corgan and James Iha

Riff 1

G -------------------|
D -------------------|
A ---2---------------|
E ------0---0---3---|

Riff 2

G ------------------------------------------------------------------------------------------------|
D ------------------------------------------------------------------------------------------------|
A ---2---2/4--------------------------------------2---2/4--------------------------------------|
E -------------0---0---3------3------2------0-------------0---0---3------3------2------3---|



in our ruse of fools...
G --------------------------|
D --------------------------|
A --------------------------|
E ---3---3---2---3---2---|

Riff 4
[ Tab from: http://www.guitartabs.cc/tabs/s/smashing_pumpkins/soma_btab.html ]
G -------------------------------------------------------------------------|
D -------------------------------------------------------------------------|
A ---2---2/4-------2---2/4----------------------------------------------|
E----------------2--------------3------5---5---0---3---3---5------2---|

Riff 5
 
G ---------------------------------------------|
D ---------------------------------------------|
A -----------3---3----------------------------|
E ---5---5---------3---3---1---1---1---1---|

Riff 6

G -----------------------------------------------------------|
D -----------------------------------------------------------|
A ---2---2------5---5------5---5---5---3---3---3---3---|
E ------------------------------------------------------------|

Riff 7 

G -----------------|
D -----------------|
A ------------2---|
E ---3---2--------|


Riff 1  x8
Riff 2  x4
Riff 1  x4
Riff 2  x4
Riff 4  x1
Riff 5  x4
Riff 2  x10
Riff 5  x2
Riff 6  x2
Riff 2  x4
Riff 1  x4
Riff 7  x1

If you have any corrections,comments,or anything e-mail me:)
Brianna Jenkins
BriannaJ@magiccarpet.com


Comments