Smashing Pumpkins - Snap Chords & Tabs

 

Snap Chords & Tabs

Smashing Pumpkins Chords & Tabs

Version: 1 Type: Tab 0 ratings
1 star 2 stars 3 stars 4 stars 5 stars
comments

Snap Tab

#----------------------------------PLEASE NOTE---------------------------------#
#This file is the author's own work and represents their interpretation of the #
#song. You may only use this file for private study, scholarship, or research. #
#------------------------------------------------------------------------------##
Date: Thu, 4 Jan 1996 19:46:53 -0800
From: sten@ix.netcom.com (Scott, Mari & Brian )
Subject:  Tab: "Snap (if I could)" Smashing Pumpkins

                              Smashing Pumpkins

                              "Snap (If I could)"
                              Transcribed by,
                              Brian Ebbitt

e-----------------------------------------------------------|
b-----------0-------------------0-----------------0---------|
g------0------0-------------0-----0-----------0-----0-------|
d----2---2------2---------4---4-----4-------2---2-----2-----|
a--3--------------3-----5-------------5---3-------------3---|
E-----------------------------------------------------------|
                         (fifth time)
e--------------------|   |--------------------------------|
b----------3---------|   |------------------------0-------|
g------0-----0-------|   |------0---0---------0-----0-----|
d----4---4-----4-----|   |----4-------4-----2---2-----2---|
a--5-------------5---|   |--5-------------3-------------3-|
E--------------------|x4 |--------------------------------|

e------------------|
b----------0-------|
g-----0------0-----|
d---4---4------4---|
a-5--------------5-|
E------------------|

I'd break
someone's someone
To show how big I am
you know
I'm not sorry
I'll take everything

(Chorus)
I wouldn't give you  b-5/7---|
The time of day      b-5/7---|
you are my only      b-5/7---|
what can I say       b-5/7---|

That alone now
cause your not alone (Bass lead)
[ Tab from: http://www.guitartabs.cc/tabs/s/smashing_pumpkins/snap_tab.html ]
(Verse)
You think you
need a seer
to show
me the way

I wouldn't give you away
away

(Chorus)

Key:
/= slide
---- End Forwarded Message


From sten@ix.netcom.com Sun Jan  7 18:05:25 1996
 <199601071803.KAA26096@ix5.ix.netcom.com>
From: sten@ix.netcom.com (Scott, Mari & Brian )
Subject:  Tab: "Snap (if I could)" Smashing Pumpkins
To: Guitar@Nevada.edu
Status: O

-

                              Smashing Pumpkins

                              "Snap (If I could)"
                              Transcribed by,
                              Brian Ebbitt

e-----------------------------------------------------------|
b-----------0-------------------0-----------------0---------|
g------0------0-------------0-----0-----------0-----0-------|
d----2---2------2---------4---4-----4-------2---2-----2-----|
a--3--------------3-----5-------------5---3-------------3---|
E-----------------------------------------------------------|
                         (fifth time)
e--------------------|   |--------------------------------|
b----------3---------|   |------------------------0-------|
g------0-----0-------|   |------0---0---------0-----0-----|
d----4---4-----4-----|   |----4-------4-----2---2-----2---|
a--5-------------5---|   |--5-------------3-------------3-|
E--------------------|x4 |--------------------------------|

e------------------|
b----------0-------|
g-----0------0-----|
d---4---4------4---|
a-5--------------5-|
E------------------|

I'd break
someone's someone
To show how big I am
you know
I'm not sorry
I'll take everything

(Chorus)
I wouldn't give you  b-5/7---|
The time of day      b-5/7---|
you are my only      b-5/7---|
what can I say       b-5/7---|

That alone now
cause your not alone (Bass lead)

(Verse)
You think you
need a seer
to show
me the way

I wouldn't give you away
away

(Chorus)

Key:
/= slide
---- End Forwarded Message
Comments