Smashing Pumpkins - Siva Chords & Tabs

 

Siva Chords & Tabs

Smashing Pumpkins Chords & Tabs

Version: 5 Type: Tab 0 ratings
1 star 2 stars 3 stars 4 stars 5 stars
comments

Siva Tab

   
The Smashing Pumpkins Siva
BU Bend up PB Pre-bend s Slide h Hammer-on p Pull-off
Fig 1 (Both guitars)
E|------------------------------------|--------------------------|
B|------------------------------------|--------------------------|
G|------------------------------------|--------------------------|
D|-------------------------------BU---|--------------------9---7-|
A|-12h14-14-14-14--12--14-14--14(15)14|-12h14-14-14-14-14--9---7-|
E|-0-----0--0--0---0---0--0---0-------|-0-----0--0--0--0---7---5-|

E|------------------------------------|--------------------------|
B|------------------------------------|--------------------------|
G|------------------------------------|--------------------------|
D|-------------------------------BU---|--------------------5---7-|
A|-12h14-14-14-14--12--14-14--14(15)14|-12h14-14-14-14-14--5---7-|
E|-0-----0--0--0---0---0--0---0-------|-0-----0--0--0--0---3---5-|

I spin off and lose my he---ad

Fig 2 (Guitar 1)

E|----BU---------------------------------------------------------|
B|-15(16)15------PB---------------------BU-------PB--------------|
G|--------------(15)14---------------14(15)14---(15)14--12-------|
D|---------------------17-14-------------------------------------|
A|---------------------------------------------------------------|
E|---------------------------------------------------------------|

E|----BU---------------------------------------------------------|
B|-15(16)15-----PB-----------------------------------------------|
G|-------------(15)14--------------------------------------------|
D|--------------------17-14--------------------------------------|
A|---------------------------------------------------------------|
E|---------------------------------------------------------------|

Fig.3 (Guitar 2 under Fig.2 and Fig.4)

E|--------------------------------------------------------------------|
B|--------------------------------------------------------------------|
G|--------------------------------------------------------------------|
D|--2-----2---------5--7-------------2-----2---------7--5-------------|
A|--2-----2---------5--7-------------2-----2---------7--5-------------|
E|--0-----0---------3--5-------------0-----0---------5--3-------------| 

E|--------------------------------------------------------------------|
B|------------------------------------8-x-8-x-8-x-8-x-8---------------|
G|------------------------------------7-x-7-x-7-x-7-x-7---------------|
D|--2-----2---------5--7--------------6-x-6-x-6-x-6-x-6---------------|
A|--2-----2---------5--7--------------7-x-7-x-7-x-7-x-7---------------|
E|--0-----0---------3--5--------------0---0---0---0---0---------------| 

Fig.4 (Guitar 1)

E|---------------------------------------------------------------|
B|----BU-------------------------------BU--------------BU--------|
G|-14(15)14-12------------12--------14(15)14-12-----14(15)-------|
D|-------------14---12h14------------------------14--------------|
A|---------------------------------------------------------------|
E|---------------------------------------------------------------|

E|---------------------------------------------------------------|
B|---------------------------------------------------------------|
G|-14(15)14-12------------12-------------------------------------|
D|-------------14---12h14----------------------------------------|
A|---------------------------------------------------------------|
E|---------------------------------------------------------------|

Fig.5 (Guitar 2)

E|---------------------------------------------------------------|
B|---------------------------------------------------------------|
G|-7---9-9--9-----7---9-9--9-----7---9-9--9-----7---9-9--9-------|
D|-7-s-9-9--9--2--7-s-9-9--9--2--7-s-9-9--9--2--7-s-9-9--9--2----|
A|-5-s-7-7--7--2--5-s-7-7--7--2--5-s-7-7--7--2--5-s-7-7--7--2----|
E|-------------0--------------0--------------0--------------0----|

I don?t live I in-----hale
I don?t give I un-----veil
Don?t wan----na live in your mis-----e-----ry
I don?t live I in-----hale
Fig.6 (Guitar 1 over ?Don?t wanna live in your misery?)

E|---------------------------------------------------------------|
B|----BU---------------------------------------------------------|
G|-14(15)14-12---------12----------------------------------------|
D|--------------14-12-----14-14----------------------------------|
A|---------------------------------------------------------------|
E|---------------------------------------------------------------|

Fig.7 (Guitar 2)

E|---------------------------------------------------------------|
B|----------------------------------------------8----------------|
G|-7--x--7---------------------------------9----7----------------|
D|-7--x--7---------------------------------9----6----------------|
A|-5--x--5----------------7-5--------------7----7----------------|
E|----------------------------7-6-5s10-----0----0----------------|

E|---------------------------------------------------------------|
B|----------------------------------------------9----------------|
G|-7--x--7---------------------------------9----9----------------|
D|-7--x--7---------------------------------9----9----------------|
A|-5--x--5---------------7-5---------------7----7----------------|
E|---------------------------7-6-5s10------0----0----------------|

Fig.8 (Guitar 1 over Fig 9)

E|---------------------------------------------------------------|
B|-12----12----------12------------------------------------------|
G|----13----13----13----13-12p11---------------------------------|
D|-------------14------------------------------------------------|
A|---------------------------------------------------------------|
E|---------------------------------------------------------------|

E|--------------------15----15p14--------------------------------|
B|-12-----------15s17----17--------------------------------------|
G|----13----13---------------------------------------------------|
D|-------14------------------------------------------------------|
A|---------------------------------------------------------------|
E|---------------------------------------------------------------|

E|---------------------------------------------------------------|
B|---------------------------------------------------------------|
G|-12p11-12------------------------------------12p11-9-----------|
D|---------------------------14----------------------------------|
A|---------------------------------------------------------------|
E|---------------------------------------------------------------|

Fig.9 (Guitar 2)
[ Tab from: http://www.guitartabs.cc/tabs/s/smashing_pumpkins/siva_tab_ver_5.html ]
E|-----------------------------------------------------------------|/P> 
B|-5--5--5--5--5--5--5--5--5--5--5--5--5--5--5--5--5--5--5--5------|/P> 
G|-4--4--4--4--4--4--4--4--4--4--4--4--4--4--4--4--4--4--4--4------|/P> 
D|-2--2--2--2--2--2--2--2--2--2--2--2--2--2--2--2--2--2--2--2------|/P> 
A|-2--2--2--2--2--2--2--2--2--2--2--2--2--2--2--2--2--2--2--2------|/P> 
E|-----------------------------------------------------------------|/P> 

sprin---kle all my kis--ses on your hea---------|d
stars full of wish--es fill our be----------|d

E|-2--2--2--2--2--2--2--2--2--2--3p-2--2--3p-2--2--3p-2--2--2----|
B|-3--3--3--3--3--3--3--3--3--3--3--3--3--3--3--3--3--3--3--3----|
G|-2--2--2--2--2--2--2--2--2--2--2--2--2--2--2--2--2--2--2--2----|
D|-0--0--0--0--0--0--0--0--0--0--0--0--0--0--0--0--0--0--0--0----|
A|---------------------------------------------------------------|
E|---------------------------------------------------------------|

E|-----------0-------------------------------------------0---------|/P> 
B|------3----1--------------------------------------3----1---------|/P> 
G|------0----0--------------------------------------0----0---------|/P> 
D|------0----2--------------------------------------0----2---------|/P> 
A|------2----3--------------------------------------2----3---------|/P> 
E|------3-------------------------------------------3--------------|/P> 

She sa----id I?m de-------------|ad

Fig.10 (Guitar 1 solo over Fig.11)

E|----BU--------BU-----------BU---17(18)----17(18)17p15--18(19)--|
B|-17(18)----17(18)-17p15-17(19)-----BU--------BU----------BU----|
G|---------------------------------------------------------------|
D|---------------------------------------------------------------|
A|---------------------------------------------------------------|
E|---------------------------------------------------------------|

E|-18(19)-18(19)-14(15)------------------------------------------|
B|----BU-----BU-----BU-----------------BU----15(16)(16)15--------|
G|----------------------------12----14(15)------BU--PB----16p15--|
D|-------------------------14----15----------------------------17|
A|---------------------------------------------------------------|
E|---------------------------------------------------------------|

E|---------------------------------------------------14(15)14(15)|
B|------------------------------------------------------BU----BU-|
G|-14(15)-(15)14--------------14(15)14-12-15(16)15-12------------|
D|----BU---PB----17p15h17-14-------------------------------------|
A|---------------------------------------------------------------|
E|---------------------------------------------------------------|

Fig.11 (Guitar 2)

E|---------------------------------------------------------------|
B|---------------------------------------------------------------|
G|-7---9-9--9-----7---9-9--9-----7---9-9--9-----7---9-9--9-------|
D|-7-s-9-9--9--2--7-s-9-9--9--2--7-s-9-9--9--2--7-s-9-9--9--2----|
A|-5-s-7-7--7--2--5-s-7-7--7--2--5-s-7-7--7--2--5-s-7-7--7--2----|
E|-------------0--------------0--------------0--------------0----|

Fig.10 cont. (Guitar 1 over Fig.12)

E|-17(18)----------------------------------------------20(21)---------|
B|--------------------------------------------------------------------|
G|--------------------------------------------------------------------|
D|--------------------------------------------------------------------|
A|--------------------------------------------------------------------|
E|--------------------------------------------------------------------| 

Fig.12 (Guitar 2)

E|---------------------------------------------------------------|
B|---------------------------------------------------------------|
G|---------------------------------------------------------------|
D|---------------------------------------------------------------|
A|--------2p0-------------2p0-----------2p0-----2p0--------------|
E|-------------3-0-------------3-0-----------3p0-----3h5---------|
 

E|---------------------------------------------------------------|
B|---------------------------------------------------------------|
G|---------------------------------------------------------------|
D|---------------------------------------------------------------|
A|---------------------------------------------------------------|
E|-5s12-let-ring----------------------------------12s0-----------|

Fig.13 (Guitar 2)

E|---------------------------------------------------------------|
B|-7-------------------------9----10p9---------------------------|
G|-7-------------------------9----9------------------------------|
D|-7-------------------------9----9------------------------------|
A|-5-------------------------7----7------------------------------|
E|---------------------------0-let-ring--------------------------|

Fig.14 (Guitar 1)

E|-----------------------------------------------------0---------|
B|----------------------0----------------------------------------|
G|-----------------0---------------------------0-----------------|
D|----------4---------------------------4------------------------|
A|------2--------------------------2-----------------------------|
E|-0--------------------------0----------------------------------|

All this pain smothers me Like a bomb that you can?t see

E|---------------------------------------------------------------|
B|------------------------------0--------------------------------|
G|----------------------0----------------------------------------|
D|-------------4-------------------------------------------------|
A|-------2-------------------------------------------------------|
E|-0----------------------------------0-let-ring-----------------|

Tell me tell me what you?re after I just wanna get there faster

Fig.15 (Both guitars)

E|---------------------------------------------------------------|
B|-8-x-8-x-8-x-8-x-8-x-8-x-8-x-8-x-8-x-8-x-8-x-8-x-8-x-8-x-8-x-8-|
G|-7-x-7-x-7-x-7-x-7-x-7-x-7-x-7-x-7-x-7-x-7-x-7-x-7-x-7-x-7-x-7-|
D|-6-x-6-x-6-x-6-x-6-x-6-x-6-x-6-x-6-x-6-x-6-x-6-x-6-x-6-x-6-x-6-|
A|-7-x-7-x-7-x-7-x-7-x-7-x-7-x-7-x-7-x-7-x-7-x-7-x-7-x-7-x-7-x-7-|
E|-0---0---0---0---0---0---0---0---0---0---0---0---0---0---0---0-|
Yeah!

E|---------------------------------------------------------------|
B|---------------------------------------------------------------|
G|-7---9-9--9-----7---9-9--9-----7---9-9--9-----7---9-9--9-------|
D|-7-s-9-9--9--2--7-s-9-9--9--2--7-s-9-9--9--2--7-s-9-9--9--2----|
A|-5-s-7-7--7--2--5-s-7-7--7--2--5-s-7-7--7--2--5-s-7-7--7--2----|
E|-------------0--------------0--------------0--------------0----|

E|---------------------------------------------------------------|
B|---------------------------------------------------------------|
G|-----------9---------------------------------------------------|
D|-5--7------9---------------------------------------------------|
A|-5--7------7---------------------------------------------------|
E|-3--5------0---------------------------------------------------|

Verse 1 Verse 2

I spin off and lose my head Way down deep beneath my heart
Throwing stray a spark instead Lies a soul that?s torn apart
Gather strength down in my heel Tell me tell me what you?re after
And dig it in the world I peel I just wanna get there faster
Tabbed by Paul Bamford: bombardier1979@lycos.co.uk
Comments