Smashing Pumpkins - Siva Chords & Tabs

 

Siva Chords & Tabs

Smashing Pumpkins Chords & Tabs

Version: 4 Type: Tab 0 ratings
1 star 2 stars 3 stars 4 stars 5 stars
comments

Siva Tab

   
Chord Fingerings:
   Em7  G5  A5  B5  E5  E  D  Badd#5
E| 3    x   x   x   x   0  2  x
B| 3    x   x   x   x   0  3  0
G| 0    x   x   x   x   1  3  0
D| 2    5   7   9   2   2  0  4
A| 2    5   7   9   2   2  x  2
E| 0    3   5   7   0   0  x  x


Fig1
|------------------------------|
|------------------------------|
|------------------------------|
|------------------------------|
|--12-14--14-14--12--14-14-14--|
|--0--0---0--0---0---0--0--0---|

Fig2
|-------------------------|
|-------------------------|
|-------------------------|
|-------------------------|
|-5-7--7-7--5--7--7-7--7--|
|-0-0--0-0--0--0--0-0--0--|

Figs3,4 (Add these Figs at the end of Figs 1 & 2 where appropriate)
|-----------|  |-----------|
|-----------|  |-----------|
|-----------|  |-----------|
|---9-9-7---|  |---5-5-7---|
|---9-9-7---|  |---5-5-7---|
|-0-7-7-5---|  |-0-3-3-5---|

Fig5
|-12-10-----------------------------------12-10------------|
|-------12-10-------12-10--12-11-10-------------12-10------|
|-------------12-9-------------------12---------------12-9-|
|----------------------------------------------------------|
|----------------------------------------------------------|
|----------------------------------------------------------|

|----------------------------------------------------------------------------|
|-10-11-10------------7--10-11-10-------10-11-10------10-11-10-----------7---|
|----------12-9--7-9--------------12-9-------------------------12-9--7-9-----|
|-------------------------------------------------12-------------------------|
|----------------------------------------------------------------------------|
|----------------------------------------------------------------------------|

Fig6
  G5 A5  E5  G5 A5  E5
|-----------------------|
|-----------------------|
|-----------------------|
|--5--7---2---5--7---2--|
|--5--7---2---5--7---2--|
|--3--5---0---3--5---0--|
[ Tab from: http://www.guitartabs.cc/tabs/s/smashing_pumpkins/siva_tab_ver_4.html ]
Fig7
|-------------------------------|
|---12-10-----------------------|
|-9-------12---9--7---12-9-9-7--|
|-------------------------------|
|-------------------------------|
|-------------------------------|

Fig8
  A5                   Em7  A5                E5
|----------------------3--------------------------|
|----------------------3--------------------------|
|--2--2----------------0----2--2------------------|
|--2--2----------------2----2--2---------------2--|
|--0--0--5-3-------5---2----0--0--5-3-------5--2--|
|------------5-4-3-----0--------------5-4-3----0--|


Fig9
|--------------------------------------|
|--------------------------------------|
|-----------------------------------2--|
|-----------------------------------2--|
|--2-0------2-0------2-0------------0--|
|------3-0------3-0------3-0--3-0-3----|

Fig10
|------------------|
|--7-----9----10-9-|
|--7-----9----9--9-|
|------------------|
|------------------|
|------------------|


(guitars only)
Fig1,2>4x
(band in)
Fig1,2>4x

Fig1,2
I spin off and lose my head
Fig1,2
Throwing stray a spark instead
Fig1,2
Gather strength down in my heel
Fig1,2
And dig it in the world I peel

Fig5 over:
|Em7 G5 A5 |Em7 B5 A5 |
|Em7 G5 A5 |Em7       |>2x

Fig1,2
Way down deep within my heart
Fig1,2
Lies a soul that's torn apart
Fig1,2
Tell me, tell me what you're after
E5
I just want to get there faster

Fig6>4x
Fig6           Fig6
I don't live - I inhale
Fig6           Fig6
I don't give - I unveil
(add Fig 7)
Fig6               Fig6
Don't want to live in your misery
Fig6           Fig6
I don't live - I inhale

Fig8

E                              D
Sprinkle all my kisses on your head
E                             D
Stars full of wishes fill our beds
    E
She said, "I'm dead"

Solo over:
Fig6>8x
Fig9>2x

Bass & Drums>8x
Fig10>3x

Badd#5
All this pain smothers me
Badd#5
Like a bomb that you can't see
Badd#5
Tell me, tell me what you're after
I just want to get there faster

|Em7 |>4x

Fig6>4x
Fig6           Fig6
I don't live - I inhale
Fig6           Fig6
I don't give - I unveil
Fig6           Fig6
I don't live - I inhale
Fig6
I don't live
Comments