Smashing Pumpkins - Siva Chords & Tabs

 

Siva Chords & Tabs

Smashing Pumpkins Chords & Tabs

Version: 1 Type: Bass Tab 0 ratings
1 star 2 stars 3 stars 4 stars 5 stars
comments

Siva Bass Tab

   
Siva
by Randy Locklair
rlocklair@envirolink.org

starts on:
G---------
D---------
A-5-7-----
E-----7-5-

G-----------------------------------------------------------------------
D-----------------------------------------------------------------------
A-5-7-7-----5-7-7-7b8r7-5-7-7-----5-7-7-7b8r7-5-7-7-----5-7-7-7b8r7-----
E-------0-0-------------------0-0-------------------0-0-----------------

G-------------------
D-------------------
A-5-7-7-7-7-5-7-----
E---------------7-5-

Verse:

G-----------------------------------------
D-----------------------------------------
A-5-7-7-----5-7-7-7b8r7-5-7-7-----5-7-7-7-
E-------0-0-------------------0-0---------

G-----------------------------------------
D-----------------------------------------
A-5-7-7-----5-7-7-7b8r7-5-7-7-----5-7-----
E-------0-0-------------------0-0-----3-5-

G-----------------------------------------
D-----------------------------------------
A-5-7-7-----5-7-7-7b8r7-5-7-7-----5-7-7-7-
E-------0-0-------------------0-0---------

G-----------------------------------------
D-----------------------------------------
A-5-7-7-----5-7-7-7b8r7-5-7-7-----5-7-----
E-------0-0-------------------0-0-----3-5-

Fill:

G-------------------------------------------|
D-------------------------------------------|
A-7-7-----------------7-7-------7-5---------|
E-----3-5-5-0-0-7-5-5-----3-5-5-----7-6-5-3-|

G----------------------------------------------------------------
D----------------------------------------------------------------
A-------------------------------------7-7-7-------7-7-7-----7-7--
E-0-0-3-5-5-0-0-7-5-5-0-0-3-5-5-0-0-0-------0-0-0-------0-0------

Verse 2:

G-----------------------------------------
D-----------------------------------------
A-5-7-7-----5-7-7-7b8r7-5-7-7-----5-7-----
E-------0-0-------------------0-0-----7-5-

G-----------------------------------------
D-----------------------------------------
A-5-7-7-----5-7-7-7b8r7-5-7-7-----5-7-----
E-------0-0-------------------0-0-----3-5-

G-----------------------------------------
D-----------------------------------------
A-5-7-7-----5-7-7-7b8r7-5-7-7-----5-7-----
E-------0-0-------------------0-0-----7-5-

G---
D---
A---
E-0-

Chorus:
G---------------------------------------------------------------------
D---------------------------------------------------------------------
A---------------------------------------------------------------------
E-3-5-0-0-0-3-5-0-0-0-0--3-5-0-0-0-3-5-0-0-0-0--3-5-0-0-0-3-5-0-0-0-0-

G---------------------------------------------------------------------
D---------------------------------------------------------------------
A---------------------------------------------------------------------
E-3-5-0-0-0-3-5-0-0-0-0--3-5-0-0-0-3-5-0-0-0-0--3-5-0-0-0-3-5-0-0-0-0-

G---------------------------------------------------------------------
D---------------------------------------------------------------------
A---------------------------------------------------------------------
E-3-5-0-0-0-3-5-0-0-0-0--3-5-0-0-0-3-5-0-0-0-0--3-5-0-0-0-3-5-0-0-0-0-
[ Tab from: http://www.guitartabs.cc/tabs/s/smashing_pumpkins/siva_btab.html ]
G---------------------------------------------------------------------
D---------------------------------------------------------------------
A---------------------------------------------------------------------
E-3-5-0-0-0-3-5-0-0-0-0--3-5-0-0-0-3-5-0-0-0-0--3-5-0-0-0-3-5-0-0-0-0-

G----------------------0--
D-------------------------
A-5-5----5-3--------------
E------------5-4-3--0-----
palm mute

G----------------------0--
D-------------------------
A-5-5----5-3--------------
E------------5-4-3--0-----
palm mute

G-----9-----------------7-----------------9-----------------7---7---7----
D---9---9---9---9-----7---7---7---7-----9---9---9---9-----7---7---7---7--
A-7-------7---7---7-5-------5---5---5-7-------7---7---7-5---------------5
E------------------------------------------------------------------------

G-----5----5-
D---5--------
A-3-----3----
E------------

Solo:

G---------------------------------------------------------------------
D---------------------------------------------------------------------
A---------------------------------------------------------------------
E-3-5-0-0-0-3-5-0-0-0-0--3-5-0-0-0-3-5-0-0-0-0--3-5-0-0-0-3-5-0-0-0-0-

G---------------------------------------------------------------------
D---------------------------------------------------------------------
A---------------------------------------------------------------------
E-3-5-0-0-0-3-5-7--------3-5-0-0-0-3-5-0-0-0-0--3-5-0-0-0-3-5-0-0-0-0-

G-----------------------------------------------
D-----------------------------------------------
A-----------------------------------------------
E-3-5-0-0-0-3-5-0-0-0-0--3-5-0-0-0-3-5-0-0-0-0--

G---------------------------------
D---------------------------------
A-2p0-----2p0-----2p0-------------
E-----3p0-----3p0-----3p0-3p0-3h5-

G---------------------------------
D---------------------------------
A-2p0-----2p0-----2p0-------------
E-----3p0-----3p0-----3p0-3p0-3h5-

repeat alot:

G-------------
D-------------
A-7-7-7-7-7---
E-----------7-

loud part repat many times:
G-------------
D-------------
A-------7-7-7-
E-0-0-0-------

Ending:

G---------------------------------------------------------------------
D---------------------------------------------------------------------
A---------------------------------------------------------------------
E-3-5-0-0-0-3-5-0-0-0-0--3-5-0-0-0-3-5-0-0-0-0--3-5-0-0-0-3-5-0-0-0-0-

G---------------------------------------------------------------------
D---------------------------------------------------------------------
A---------------------------------------------------------------------
E-3-5-0-0-0-3-5-0-0-0-0--3-5-0-0-0-3-5-0-0-0-0--3-5-0-0-0-3-5-0-0-0-0-

G---------------------------------------------------------------------
D---------------------------------------------------------------------
A---------------------------------------------------------------------
E-3-5-0-0-0-3-5-0-0-0-0--3-5-0-0-0-3-5-0-0-0-0--3-5-0-0-0-3-5-0-0-0-0-

G---------------------------------------------------------------------
D---------------------------------------------------------------------
A---------------------------------------------------------------------
E-3-5-0-0-0-3-5-0-0-0-0--3-5-0-0-0-3-5-0-0-0-0--3-5-0-0-0-3-5-0-0~~~~-
________________________________________________________________________

Any problems, suggestions, compliments, requests for other songs, etc,
email to:

rlocklair@envirolink.org

Return to the Pumpkin Pie Guitar Section!
Return to the Pumpkin Pie!

-randy

Comments