Smashing Pumpkins - She Chords & Tabs

 

She Chords & Tabs

Smashing Pumpkins Chords & Tabs

Version: 1 Type: Tab 0 ratings
1 star 2 stars 3 stars 4 stars 5 stars
comments

She Tab

----------------------------------------------------------------------------
			     She - Smashing Pumpkins
----------------------------------------------------------------------------
Tabbed by:  Brandon Milford
Email: Splurge_@hotmail.com

SMASHING PUMPKINS - SHE (Reel Time Studio Sessions, acoustic)
Tuning: Standard, EBGDAE

INTRO
e|---------------------------------------------------------|
B|-------------3--------------------------------3----------|
G|--------0-------0---0---------0--------0-----------------| Repeat 2 times.
D|-----4------------4--------0--------0----0---------------|
A|--5-------5-------------0--------3----------3------------|
E|---------------------------------------------------------

e|--------------------------------------------------|
B|-------------3------------------------------------|
G|--------0-------0---0---------0--------0------0---| Repeat 2 times, then 
D|-----4------------4--------0--------0----0--------|   verse starts.
A|--5-------5-------------0--------3----------3-----|
E|--------------------------------------------------|
[ Tab from: http://www.guitartabs.cc/tabs/s/smashing_pumpkins/she_tab.html ]
VERSE
  "She...             will     never    ever    come...
e|--------------------------------------------------|
B|-------------3------------------------------------|  
G|--------0-------0---0---------0--------0------0---|  Repeat through verse.
D|-----4------------4--------0--------0----0--------|
A|--5-------5-------------0--------3----------3-----|
E|--------------------------------------------------|

Billy then plays the Intro riff twice more before the second verse as a sort of filler,
with a little change-up on the 2nd.  Shown below.

Filler
e|-------------------------------------------------------------|
B|-------------3--------------------------------3--------------|  
G|--------0-------0---0---------0--------0---------------------|
D|-----4------------4--------0--------0----0-------------------|
A|--5-------5-------------0--------3----------3----------------|
E|-------------------------------------------------------------|

e|---------------------------------------------------|
B|-----------3--3------------------------------------|  
G|--------0--0-----0-------------0-------0-----0-----| Strum into verse 2
D|-----4-------------4-------0--------0----0---------|
A|--5---------------------0---------3---------3------|
E|---------------------------------------------------|

 VERSE 2
e|------------------------------------------------|
B|--3-----3---3---------------3--------3-----3----|  
G|--0-----0---0--0------------0--------0-----0----|  Repeat 2 times then go
D|--4--4--4---4----4------0------------------0----|  to regular verse riff.
A|--5-----5---5--------0----------3-------3-------|
E|------------------------------------------------|

   Billy then screw up and they abandon the rest of the song.  For the electric version, 
 the verse is the same as the intro, with 3rd fret on B, instead of changing to the open G.
 Sorry i don't have GTR 2 tabbed.
Comments