Smashing Pumpkins - Quiet Chords & Tabs

 

Quiet Chords & Tabs

Smashing Pumpkins Chords & Tabs

Version: 1 Type: Tab 0 ratings
1 star 2 stars 3 stars 4 stars 5 stars
comments

Quiet Tab

   
Quiet-Smashing Pumpkins
from Siamese Dream 1993
words and music by Billy Corgan

Intro
guitars1,2+3 tuned:

6=C# 3=F#
5=G# 2=A#
4=C# 1=D#

guitar1

---------------------     ------------------
---------------------     ------------------
---------------------     ------------------
-4\3-3\2-0-----3\2-0-     ------------3\2-0- x4
-4\3-3\2-0-----3\2-0-     ------------3\2-0-
-4\3-3\2-0-----3\2-0-     -0----------3\2-0-

guitar2

---------------------     ------------------
---------------------     ------------------
---------------------     ------------------
-----------3/4-------     -3/4/5/6/7/8/9/10- x4
-----------3/4-------     -3/4/5/6/7/8/9/10-
-----------3/4-------     -3/4/5/6/7/8/9/10-

guitar3

---------------------     ------------------
---------0-0---------     -0----------------
-------------5-------     ------------------
---------------------     ------------------ x4
---------------------     ------------------
---------------------     ------------------

Verse
guitar4-normal tuning

---------------------------------
---------------------------------
---------------------------------
-----4-4-4/5-5-5-5/7-7-7-7/9-9-9-
-----4-4-4/5-5-5-5/7-7-7-7/9-9-9-
-0/2-2-2-2/3-3-3-3/5-5-5-5/7-7-7-

Chorus

-----------------------------------------------
-----------------------------------------------
-----------------------------------------------
-11-2-2-2-2-2-2-2-11\9-9-9-9-9-9-9\7-7-7-7-7-7-
-11-2-2-2-2-2-2-2-11\9-9-9-9-9-9-9\7-7-7-7-7-7-
--9-0-0-0-0-0-0-0--9\7-7-7-7-7-7-7\5-5-5-5-5-5-

repeat verse and chorus

Interlude

-----------------------------------------------------------------
-----------------------------------------------------------------
-----------------------------------------------------------------
-----------------------------------------------------------------
-2-2-2-2-2-2-2-2-2-2-2-2-2-2-2-2-2-2-2-2-2-2-2-2-2-2-2-2-2-2-2-2-
-----------------------------------------------------------------

-----------------------------------------------------------------
-----------------------------------------------------------------
-----------------------------------------------------------------
-----------------------------------------------------------------
-3-3-3-3-3-3-3-3-3-3-3-3-3-3-3-3-4-4-4-4-4-4-4-4-4-4-4-4-4-4-4-4-
-----------------------------------------------------------------

-----------------------------------------------------------------
-----------------------------------------------------------------
-----------------------------------------------------------------
-----------------------------------------------------------------
-5-5-5-5-5-5-5-5-6-6-6-6-6-6-6-6-7-7-7-7-7-7-7-7-8-8-8-8-8-8-8-8-
-----------------------------------------------------------------
[ Tab from: http://www.guitartabs.cc/tabs/s/smashing_pumpkins/quiet_tab.html ]
---------------------------------------------------------------------------------------------
---------------------------------------------------------------------------------------------
---------------------------------------------------------------------------------------------
---------------------------------------------------------------------------------------------
-9-9-9-9-10-10-10-10-11-11-11-11-12-12-12-12-13-13-13-13-14-14-14-14-15-15-15-15-16-16-16-16-
---------------------------------------------------------------------------------------------

Solo

------------------1/2----------------------------------x-----------------------
----1/2--------12/----12-9h12p9------------------------x-----------------------
-11/----11----------------------11/\11p9-9-11/13-13-11---9---------------------
-----------x\x---------------------------------------------11-9------------1/2-
-----------x\x--------------------------------------------------11\9-7-9-9/----
-------------------------------------------------------------------------------
                                                     
------------------------------1/2--------------1----1--------------------------
---------------------x/-16-16/\16-----------19/--19/\19-19-17-19p17------------
---------------------x/-----------13-13\----------------------------18-20p18---
---x\------------------------------------x\------------------------------------
-9-x\9h11-11/16\/12\---------------------x\------------------------------------
-------------------------------------------------------------------------------
                 1                          1-1/2
--------------19/--19-19\----1----x\---1-21/--------
-------1/2----------------19/--19-x\19/-------------
-16-18/----x\---------------------------------------
-----------x\---------------------------------------
---------------------------------------------14\10\-
----------------------------------------------------

--------------------------------------
-/7-5-/7-5-----1/4----7-5-7-5-----1---
-----------4-4/----4\---------4-4/--2-
--------------------------------------
--------------------------------------
--------------------------------------

play chorus twice
guitar5

----1-----1/2-------------------------------------------1----------------------
-12/\12-9/----9-----------------------1--------------12/--12--------1----------
----------------11-9----9--------9-11/\11-11-11-11-9-------------11/\11/-11-11-
---------------------11---11-9-11----------------------------11\---------------
-------------------------------------------------------------------------------
-------------------------------------------------------------------------------

---------------------------------------------------------------------1----1----
----------------------------1-------------------------------12-12-12/--12/\12--
-0-9-9-9-------------9-9-11/-11---------------9----9-9-9-11--------------------
---------9h11-------------------9-11--------9---11-----------------------------
--------------7-9/11-----------------7-9/11------------------------------------
-------------------------------------------------------------------------------
Comments