Smashing Pumpkins - Plume Chords & Tabs

 

Plume Chords & Tabs

Smashing Pumpkins Chords & Tabs

Version: 2 Type: Tab 0 ratings
1 star 2 stars 3 stars 4 stars 5 stars
comments

Plume Tab

   
TAB: Plume - Smashing Pumpkins
Written by Billy Corgan
Recording: I Am One (CD Single)

TUNING: Standard (Low/High E A D G B E)

This song rocks if you haven't heard it, really fuzzed out
and psycadelic.

Key:
     ~ - Vibrato/Sustain
     / - Slide down neck
     \ - Slide up neck
     b - bend (from/to fret)
     h - hammer on (from/to fret)
     p - pull off (from/to fret)
     [ - pinch harmonic

Main Riff:
 Repeat x
|-----------------------------------
|-----------------------------------
|-----------------------------------
|-----------------------------------
|--10b11b10b11b10\-5--5--5-5--5-5---
|---8b-9b-8b-9b-8\-3--3--3-3--3-3---

Verse Bridge:
|----------------------------
|----------------------------
|----------------------------
|----------------------------
|--10b11b10b11b10--2--2-3~---
|---8b-9b-8b-9b-8--0--0-1~---

[ Tab from: http://www.guitartabs.cc/tabs/s/smashing_pumpkins/plume_tab_ver_2.html ]
|--------------------------------------|-------------------------------
|--------------------------------------|-------------------------------
|--------------------------------------|-------------------------------
|------------------5--5--5--5-5--5--5--|-------------------------------
|--5--5-5--2--2-2--3--3--3--3-3--3--3--|-------------------------------
|--3--3-3--0--0-0----------------------|-------------------------------

Solo:
 Lead w/Phaser
|-------------------------------------------[12b-14-15-14-15-14-12--10-
|--10--12--10--12--10-12-12--10-12-12-12/15----------------------------
|----------------------------------------------------------------------
|----------------------------------------------------------------------
|----------------------------------------------------------------------
|----------------------------------------------------------------------

 
|------8b9~------------------------------------------------------------
|------------15-13-12-13-12-8-12-b13-----------------------------------
|----------------------------------------------------------------------
|----------------------------------------------------------------------
|----------------------------------------------------------------------
|--3\------------------------------------------------------------------

Sorry that's all I can remember right now..

Comments