Smashing Pumpkins - Obscured Chords & Tabs

 

Obscured Chords & Tabs

Smashing Pumpkins Chords & Tabs

Version: 1 Type: Tab 0 ratings
1 star 2 stars 3 stars 4 stars 5 stars
comments

Obscured Tab

   
Smashing Pumpkins
Obscured

  (acoustic)
E|-O-------0-------0-------0-------|
A|-4-------6-------1-------1-------|
D|-0-0-0-0-0-0-0-0-0-0-0-0-0-0-0-0-|
G|-5-5-5-5-7-7-7-7-2-2-2-2-2-2-2-2-|
B|-6-6-6-6-8-8-8-8-3-3-3-3-3-3-3-3-|
c|-6-6-6-6-8-8-8-8-3-3-3-3-3-3-3-3-|
 | (dilay/reaverb)                 |
E|---------------------------------|
A|---------------------------------|
D|-------------------------10---12-|
G|---------------------------------|
B|---------------------------------|
E|---------------------------------|

E|-0-------0-------0-------0--------0-------0---------0---------0-------|
A|-4-------6-------1-------8--------6-------6---------6---------6-------|
D|-0-0-0-0-0-0-0-0-0-0-0-0-0-0-0-0--0-0-0-0-0-0-0-0-0-0-0-0-0-0-0-0-0-0-|
G|-5-5-5-5-7-7-7-7-2-2-2-2-9-9-9-9--7-7-7-7-7-7-7-7-7-7-7-7-7-7-7-7-7-7-|
B|-6-6-6-6-8-8-8-8-3-3-3-3-10101010-8-8-8-8-8-8-8-8-8-8-8-8-8-8-8-8-8-8-|
c|-6-6-6-6-8-8-8-8-3-3-3-3-10101010-8-8-8-8-8-8-8-8-8-8-8-8-8-8-8-8-8-8-|
 |                                                                      |
E|----------------------------------------------------------------------|
A|----------------------------------------------------------------------|
D|-------------------------14-12-11-9-----------------------------------|
G|------------------------------------10--------------------------------|
B|----------------------------------------------------------------------|
E|----------------------------------------------------------------------|

E|-0-------0-------0-------0-------|
A|-4-------6-------1-------1-------|
D|-0-0-0-0-0-0-0-0-0-0-0-0-0-0-0-0-|
G|-5-5-5-5-7-7-7-7-2-2-2-2-2-2-2-2-|
B|-6-6-6-6-8-8-8-8-3-3-3-3-3-3-3-3-|
c|-6-6-6-6-8-8-8-8-3-3-3-3-3-3-3-3-|
 |                                 |
E|---------------------------------|
A|---------------------------------|
D|-------------------------10---12-|
G|---------------------------------|
B|---------------------------------|
E|---------------------------------|

E|-0-------0-------0-------0--------0-------0-------0-------0-------|
A|-4-------6-------1-------8--------6-------6-------6-------6-------|
D|-0-0-0-0-0-0-0-0-0-0-0-0-0-0-0-0--0-0-0-0-0-0-0-0-0-0-0-0-0-0-0-0-|
G|-5-5-5-5-7-7-7-7-2-2-2-2-9-9-9-9--7-7-7-7-7-7-7-7-7-7-7-7-7-7-7-7-|
B|-6-6-6=6-8-8-8-8-3-3-3-3-10101010-8-8-8-8-8-8-8-8-8-8-8-8-8-8-8-8-|
c|-6-6-6-6-8-8-8-8-3-3-3-3-10101010-8-8-8-8-8-8-8-8-8-8-8-8-8-8-8-8-|
 |                                                                  |
E|------------------------------------------------------------------|
A|------------------------------------------------------------------|
D|-------------------------14-12-11-9-11-8--------------------------|
G|------------------------------------------------------------------|
B|------------------------------------------------------------------|
E|------------------------------------------------------------------|

E|-0-----------0-----------0-----------0-----------|
A|-9-----------9-----------9-----------9=----------|
D|-0--0--0--0--0--0--0--0--0--0--0--0--0--0--0--0--|
G|-10-10-10-10-10-10-10-10-10-10-10-10-10-10-10-10-|
B|-11-11-11-11-11-11-11-11-11-11-11-11-11-11-11-11-|
c|-11-11-11-11-11-11-11-11-11-11-11-11-11-11-11-11-|
 |(ith out dilay)                                  |part 1=*
E|-------------------------------------------------|
A|-------------------------------------------------|
D|-8-----------------------------------------------|
G|-------------------------------------------------|
B|-------------------------------------------------|
E|-------------------------------------------------|

E|-0-----------0-----------0-----------0-----------|
A|-11----------11----------11----------11----------|
D|-0--0--0--0--0--0--0--0--0--0--0--0--0--0--0--0--|
G|-12-12-12-12-12-12-12-12-12-12-12-12-12-12-12-12-|
B|-13-13-13-13-13-13-13-13-13-13-13-13-13-13-13-13-|
c|-13-13-13-13-13-13-13-13-13-13-13-13-13-13-13-13-|
 |                                                 |part 2=**
E|-------------------------------------------------|
A|-------------------------------------------------|
D|-11----------------------------------------------|
G|-------------------------------------------------|
B|-------------------------------------------------|
E|-------------------------------------------------|
 *             **                        *      
     lost your head now you sleep on the flore
          **                  *
 what you said i dont wont anymore
            **                         *
 though the haze make your eyes out to ache
        **
 out in space daye away

                 (play this 2 times)
E|-0-------0-------0-------0-------|
A|-4-------6-------1-------1-------|
D|-0-0-0-0-0-0-0-0-0-0-0-0-0-0-0-0-|
G|-5-5-5-5-7-7-7-7-2-2-2-2-2-2-2-2-|
B|-6-6-6-6-8-8-8-8-3-3-3-3-3-3-3-3-|
c|-6-6-6-6-8-8-8-8-3-3-3-3-3-3-3-3-|
 |(with some dilay/reaverb)        |
E|---------------------------------|
A|-4--4--4/6--6--6/8--8--8-8--8--8-|
D|--3--3----3--3----0--0-----------|
G|---------------------------------|
B|---------------------------------|
E|---------------------------------|

E|-0-------0-------0-------0-0-0-0--0-------0-------0-------0-------|
A|-4-------6-------1-------8-8-8-8--6-------6-------6-------6-------|
D|-0-0-0-0-0-0-0-0-0-0-0-0-0-0-0-0--0-0-0-0-0-0-0-0-0-0-0-0-0-0-0-0-|
G|-5-5-5-5-7-7-7-7-2-2-2-2-9-9-9-9--7-7-7-7-7-7-7-7-7-7-7-7-7-7-7-7-|
B|-6-6-6-6-8-8-8-8-3-3-3-3-10101010-8-8-8-8-8-8-8-8-8-8-8-8-8-8-8-8-|
c|-6-6-6-6-8-8-8-8-3-3-3-3-10101010-8-8-8-8-8-8-8-8-8-8-8-8-8-8-8-8-|
 |                                                                  |
E|------------------------------------------------------------------|
A|-4--4--4/6--6--6/8--8--8----------6--6--6--6--1--1--1--1----------|
D|--3--3----3--3----0--0-------------0--0--0--0--0--0--0------------|
G|------------------------------------------------------------------|
B|------------------------------------------------------------------|
E|------------------------------------------------------------------|

 
E|-0-------0-------0-------0-------0-------0-------0-------0--------|
A|-4-------6-------1-------1-------4-------6-------1-------8--------|
D|-0-0-0-0-0-0-0-0-0-0-0-0-0-0-0-0-0-0-0-0-0-0-0-0-0-0-0-0-0--------|
G|-5-5-5-5-7-7-7-7-2-2-2-2-2-2-2-2-5-5-5-5-7-7-7-7-2-2-2-2-9-9-9-9--|
B|-6-6-6-6-8-8-8-8-3-3-3-3-3-3-3-3-6-6-6-6-8-8-8-8-3-3-3-3-10101010-|
c|-6-6-6-6-8-8-8-8-3-3-3-3-3-3-3-3-6-6-6-6-8-8-8-8-3-3-3-3-10101010-|
 |(with some delay/reaberb)                                         |
E|------------------------------------------------------------------|
A|-4--4--4/6--6--6/8--8--8---------4--4--4/6--6--6/8--8--8----------|
D|--3--3----3--3----0--0------------3--3----3--3----0--0------------|
G|------------------------------------------------------------------|
B|------------------------------------------------------------------|
E|------------------------------------------------------------------|
 |                                                                  |
E|------------------------------------------------------------------|
A|---------------------------------------------------------8--------|
D|---------12-10-9-------------------------12-10-9------------------|
G|-12B13---------------------------12B13----------------------------|
B|------------------------------------------------------------------|
E|------------------------------------------------------------------|
[ Tab from: http://www.guitartabs.cc/tabs/s/smashing_pumpkins/obscured_tab.html ]
E|-0-------0-------0-------0-------0-------0-------0-------|
A|-6-------6-------6-------6-------6-------6-------6-------|
D|-0-0-0-0-0-0-0-0-0-0-0-0-0-0-0-0-0-0-0-0-0-0-0-0-0-0-0-0-|
G|-7-7-7-7-7-7-7-7-7-7-7-7-7-7-7-7-7-7-7-7-7-7-7-7-7-7-7-7-|
B|-8-8-8-8-8-8-8-8-8-8-8-8-8-8-8-8-8-8-8-8-8-8-8-8-8-8-8-8-|
c|-8-8-8-8-8-8-8-8-8-8-8-8-8-8-8-8-8-8-8-8-8-8-8-8-8-8-8-8-|
 |(reaver)                                                 |
E|---------------------------------------------------------|
A|---------------------------------------------------------|
D|-10------9-------7-------------------------------7-------|
G|-------------------------10------7-------10--------------|
B|---------------------------------------------------------|
E|---------------------------------------------------------|
 |                                                         |
E|-------------------------8-------10------8-------10------|
A|-----------------10--------------------------------------|
D|-10------9-----------------------------------------------|
G|---------------------------------------------------------|
B|---------------------------------------------------------|
E|---------------------------------------------------------|
 
E|-0-------0-------0-------0-------0-------0-------0-------0--------|
A|-9-------9-------9-------9-------11------11------11------11-------|
D|-0-0-0-0-0-0-0-0-0-0-0-0-0-0-0-0-0-0-0-0-0-0-0-0-0-0-0-0-0-0-0-0--|
G|-1010101010101010101010101010101012121212121212121212121212121212-|
B|-1111111111111111111111111111111112121212121212121212121212121212-|
c|-1111111111111111111111111111111113131313131313131313131313131313-|
 |                                                                  |
E|------------------------------------------------------------------|
A|------------------------------------------------------------------|
D|-8-------7--------------------------------------------------------|
G|-----------------10------8-------10gb12-----------------12b1312b13|
B|------------------------------------------------------------------|
E|------------------------------------------------------------------|
 |                                                                  |
E|-11------13------15------16------18-----20------22--------------- |
A|------------------------------------------------------------------|
D|------------------------------------------------------------------|
G|------------------------------------------------------------------|
B|------------------------------------------------------------------|
E|------------------------------------------------------------------|

E|-0-------0-------0-------0-------0-------0-------0------0---------|
A|-9-------9-------9-------9-------11------11------11-----11--------|
D|-0-0-0-0-0-0-0-0-0-0-0-0-0-0-0-0-0-0-0-0-0-0-0-0-0-0-0-0-0-0-0-0--|
G|-1010101010101010101010101010101012121212121212121212121212121212-|
B|-1010101010101010101010101010101012121212121212121212121212121212-|
c|-1111111111111111111111111111111113131313131313131313131313131313-|
 |                                                                  |
E|20--------------------------18------------------------------------|
A|--21-----20------18------16---------------------------------------|
D|------------------------------------------------------------------|
G|----18-17--17-15---15-13------------------------------------------|
B|------------------------------------------------------------------|
E|------------------------------------------------------------------|
 |                                                                  |
E|------------------------------------------------------------------|
A|------------------------------------------------------------------|
D|------------------------------------------------------------------|
G|--------------------------12-12B13--------------------------------|
B|------------------------------------------------------------------|
E|------------------------------------------------------------------|
0
E|-0-------0-------0-------0-------0-------0-------0-------0--------|
A|-9-------9-------9-------9-------11------11------11------11-------|
D|-0-------0-------0-------0-------0-------0-------0-------0--------|
G|-1010101010101010101010101010101020202020202020202020202020202020-|
B|-1010101010101010101010101010101013131313131313131313131313131313-|
c|-1111111111111111111111111111111113131313131313131313131313131313-|
 |                                                                  |
E|------------------------------------------------------------------|
A|---------21------20------18-------16------------------------------|
D|------------------------------------------------------------------|
G|------18---18-17----17-15---15-13---------------------------------|
B|------------------------------------------------------------------|
E|------------------------------------------------------------------|
 |                                                                  |
E|------------------------------------------------------------------|
A|------------------------------------------------------------------|
D|------------------------------------------------------------------|
G|-12B13------------------------------------------------------------|
B|------------------------------------------------------------------|
E|------------------------------------------------------------------|

E|-0-------0-------0-------0-------0-------0-------0-------0--------|
A|-9-------9-------9-------9-------11------11------11------11-------|
D|-0-------0-------0-------0-------0-------0-------0-------0--------|
G|-1010101010101010101010101010101012121212121212121212121212121212-|
B|-1010101010101010101010101010101012121212121212121212121212121212-|PLAY
C|-1111111111111111111111111111111113131313131313131313131313131313-|THIS
 |                                                                  |TWO
E|------------------------------------------------------------------|TIMES
A|---------21------20------18------16-------------------------------|
D|------------------------------------------------------------------|
G|------18---18-17----17-15---15-13---------------------------------|
B|------------------------------------------------------------------|
E|------------------------------------------------------------------|
                 (play this 2 times)
E|-0-------0-------0-------0-------|
A|-4-------6-------1-------1-------|
D|-0-0-0-0-0-0-0-0-0-0-0-0-0-0-0-0-|
G|-5-5-5-5-7-7-7-7-2-2-2-2-2-2-2-2-|
B|-6-6-6-6-8-8-8-8-3-3-3-3-3-3-3-3-|
E|-6-6-6-6-8-8-8-8-3-3-3-3-3-3-3-3-|
 |                                 |
E|---------------------------------|
A|-4--4--4/6--6--6/8--8--8--8-8-8--|
D|--3--3----0--0----0--0-----------|
G|---------------------------------|
B|---------------------------------|
E|---------------------------------|

E|-0-------0-------0-------0-------0--------0-------0-------0-------|
A|-4-------6-------1-------1-------8--------5-------5-------5-------|
D|-0-0-0-0-0-0-0-0-0-0-0-0-0-0-0-0-0-0-0-0--0-0-0-0-0-0-0-0-0-0-0-0-|
G|-5-5-5-5-7-7-7-7-2-2-2-2-2-2-2-2-9-9-9-9--6-6-6-6-6-6-6-6-6-6-6-6-|
B|-6-6-6-6-8-8-8-8-3-3-3-3-3-3-3-3-10101010-7-7-7-7-7-7-7-7-7-7-7-7-|
E|-6-6-6-6-8-8-8-8-3-3-3-3-3-3-3-3-10101010-7-7-7-7-7-7-7-7-7-7-7-7-|
 |                                                                  |
E|------------------------------------------------------------------|
A|-4--4--4/6--6--6/8--8--8---------6--6--6--6--1--1--1--1-----------|
D|--3--3----3--3----0--0------------0--0--0--0--0--0--0-------------|
G|------------------------------------------------------------------|
B|------------------------------------------------------------------|
E|------------------------------------------------------------------|
Comments