Smashing Pumpkins - Mayonaise Chords & Tabs

 

Mayonaise Chords & Tabs

Smashing Pumpkins Chords & Tabs

Version: 4 Type: Tab

Mayonaise Tab

   
Standard tuning
Capo on the 3rd fret
Tableture written in accordance to the capo

b = bend
/ = slide up
\ = slide down
~ = let the note ring
h = hammer on
p = pull off

      (1,2,3,4,5,6) string number
A     (0,0,2,2,0,X)
C     (0,0,5,5,3,X)
G     (0,0,0,5,5,3)
Em    (0,0,0,2,2,0)
Cadd9 (3,0,0,2,3,X) 


Guitar 1 (Clean)
|----------------|----------------|-----------------|-----------------|
|--------0-------|--------0-------|---------3---0---|---------3---0---|
|-----2----0-2---|-----2----0-2---|-----0-----0---0-|-----0-----0---0-|
|---0---0------0-|---0---0------0-|---2---2---------|---2---2---------|
|----------------|----------------|-0---------------|-3---------------|
|-3--------------|-3--------------|-----------------|-----------------|

Guitar 2 (Clean)
|----------------|----------------|-----------------|-----------------|
|----------------|----------------|-----------------|-----------------| 
|----------------|----------------|--2/4b-----2-----|-2h4-------------|
|----------------|-3\5~-------3/5-|-----------------|-----2-0---------|
|----------------|----------------|-----------------|---------3~--3/5-|
|----------------|----------------|-----------------|-----------------|

Guitar 1
|----------------|----------------|-----------------|-----------------|
|--------0-------|--------0-------|---------3---0---|---------3---0---|
|-----2----0-2---|-----2----0-2---|-----0-----0---0-|-----0-----0---0-|
|---0---0------0-|---0---0------0-|---2---2---------|---2---2---------|
|----------------|----------------|-0---------------|-3---------------|
|-3--------------|-3--------------|-----------------|-----------------|
[ Tab from: http://www.guitartabs.cc/tabs/s/smashing_pumpkins/mayonaise_tab_ver_4.html ]
Guitar 2
|----------------|----------------|-----------------|-----------------|
|----------------|----------------|-----------------|-----3~----------|
|----------------|----------------|--4b-2-4-2h4p2p0-|----------4------|
|----------------|-3/5~-----------|-----------------|-------------5---|
|----------------|----------------|-----------------|-----------------|
|-3--------------|----------------|-----------------|-----------------|

Guitar 1

A C A C G Em 

Guitar 2

|----------------|----------------|-----------------|-----------------|
|-3--1-0-1-0--1--|-0h1p0-------0--|---3-------------|-----------------|
|----------------|-------2-0-2----|-----5-4-5-4-2-4-|-2-0-2-4-5-5/7---|
|----------------|----------------|-2---------------|-----------------|
|----------------|----------------|-----------------|-----------------|
|----------------|----------------|-----------------|-----------------|

|----------------|
|-8~------8------|
|------------7---|
|----------------|
|----------------|
|----------------|

Guitar 1 
|-3--------------|
|-0--------------|
|-0--------------|\
|-2--------------| \
|-3--------------|  \
|-X--------------|   \
                      \ x2
Guitar 2              /   
|----------------|   /
|----------------|  /
|----------------| /
|----------------|/
|---0-2h3p2------|
|----------------|

Guitar 1 (with distorion)

G Em C

|----------------|
|----------------|
|-2/3\2----------|
|-XXXXX----------|  
|-2/3\2----------|
|-0--------------|

      C

|----------------|
|----------------|
|-2/3\2----------|
|-XXXXX----------|  
|-2/3\2----------|
|-0--------------|

G Em C

|----------------|
|----------------|
|-2/3\2----------|
|-XXXXX----------|  
|-2/3\2----------|
|-0--------------|

      C

|----------------|
|----------------|
|-7/8\7----------|
|-XXXXX----------|  
|-7/8\7----------|
|-0--------------|

Be creative make up our own solo, i'm not gonna right it.
Finishes with the starting chord progression and picking with differents riffs over top.

Questions, Comments, e-mail me at I_Hate_Your_Hate@hotmail.com