Smashing Pumpkins - Mayonaise Chords & Tabs

 

Mayonaise Chords & Tabs

Smashing Pumpkins Chords & Tabs

Version: 3 Type: Tab 0 ratings
1 star 2 stars 3 stars 4 stars 5 stars
comments

Mayonaise Tab

This is the little intro solo that occurs at the beginning. I'm only including it 
I've noticed that the other submissions have had some errors.

|----------------------------------------------------|
|--------------2h4-4b5r4-2~~-2h4p2-------------------|
|-2/4~~~~--2h4---------------------4~~--1~~----------|
|-------------------------------------------2/4-2--4-|
|----------------------------------------------------|
|----------------------------------------------------|

|-------------------------------2~~--------|
|---------------5r4-2-4-2h4p2-------5------|
|--------2/4~~----------------4-------4~~--|
|------------------------------------------|
|-2~~~~------------------------------------|
|------------------------------------------|

|------------------------------------------|
|-7~~-5-4-5-4~~-2h4p2----------------------|
|---------------------4--/6~~-6/8----------|
|---------------------------------6--------|
|------------------------------------7/9~~-|
|------------------------------------------|

|--------------------------------------14~~|
|------------------------------------------|
|-11-9-8-9-8----8---------8-9-9/11---------|
|------------11---11-9-11-----------9~~----|
|------------------------------------------|
|------------------------------------------|
  ^this section can apparently be done with harmonics, but i'm horrible with those so i 
bother to figure it out

SOLO
[ Tab from: http://www.guitartabs.cc/tabs/s/smashing_pumpkins/mayonaise_tab_ver_3.html ]
|------------------------------------------------------------------|
|------------------------------------------------------------------|
|------------------------------------------------------------------|
|-2/4-4-4-4/6-6-6-6/7-7-7-7/9-9-9-9~~--7-6-7~~-6~~--4/6~~----------|
|---------------------------------------------------------6gb7~~~~-|
|------------------------------------------------------------------|

 -------------------------------------------------------------------|
 -------------------------------------------------------------------|
 -------------------------------------------------------------------|
 -----------------------------4-4b6r4-2~~---------------------------|
 -0h2-4----------2-4-4b6r4--2--------------4gb6r4-2~~---------------|
 -------2~~~~--4--------------------------------------2-4-2-4-4b5r4-|

 ---------------------------------------------------------|
 ---------------------------------------------------------|
 ---------------------------------------------------------|
 ---------------------9~~--7p6------9/11~~----------------|
 ------12~~-11p9-11p9----------7~~---------------7gb9~~~~-|
 -0----------------------------------------X\\\\----------| <-- pick slide

OUTRO

Another one of the little "solos" that pop up during the quiet parts. I think there is a 
bit of phasing but it might just be bends i'm not sure.

|----------------------4p2----------------|
|----------5p4---/7~~------0-5--/12-12~~--|
|-2/4~~~~------4--------------------------|
|-----------------------------------------|
|-----------------------------------------|
|-----------------------------------------|

|------------------------------------------|
|-9-9h12-9\7-9--7p5-7p5-4-5-4\2-4p2-4/7~~--|
|------------------------------------------|
|------------------------------------------|
|------------------------------------------|
|------------------------------------------|

|------------------------------------------|
|------------------------------------------|
|-9p8--9p8/11~~--13r11--9p8-9p8------------|
|-------------------------------9~~-/11-6~~|
|------------------------------------------|
|------------------------------------------| <-- fade out
Comments