Smashing Pumpkins - In The Arms Of Sleep Chords & Tabs

 

In The Arms Of Sleep Chords & Tabs

Smashing Pumpkins Chords & Tabs

Version: 1 Type: Tab 0 ratings
1 star 2 stars 3 stars 4 stars 5 stars
comments

In The Arms Of Sleep Tab

   
ok, this is one of my favorites by the pumpkins.

Eb tuning

(play all to the rhythm of the song)

start song by upstroking these strings
          v                         4x
eb--------4--------2------------------|
Bb--------4--------2------------------|
Gb--------4--------3------------------|
Db--------6--------4------------------|
Ab--------6--------4------------------|
Eb--------4--------2------------------|
                                    x2
eb--------0--------5---------4--------|
Bb--------0--------5---------4--------|
Gb--------1--------6---------4--------|
Db--------2--------7---------6--------|
Ab--------2--------7---------6--------|
Eb--------0--------5---------4--------|
                                    x1
eb--------2--------0------------------|
Bb--------2--------0------------------|
Gb--------3--------1------------------|
Db--------4--------2------------------|
Ab--------4--------2------------------|
Eb--------2--------0------------------|
[ Tab from: http://www.guitartabs.cc/tabs/s/smashing_pumpkins/in_the_arms_of_sleep_tab.html ]
                                    4x
eb--------4--------2------------------|
Bb--------4--------2------------------|
Gb--------4--------3------------------|
Db--------6--------4------------------|
Ab--------6--------4------------------|
Eb--------4--------2------------------|
                                    x2
eb--------0--------5---------4--------|
Bb--------0--------5---------4--------|
Gb--------1--------6---------4--------|
Db--------2--------7---------6--------|
Ab--------2--------7---------6--------|
Eb--------0--------5---------4--------|
                                    x1
eb--------5---------------------------|
Bb--------5---------------------------|
Gb--------6---------------------------|
Db--------7---------------------------|
Ab--------7---------------------------|
Eb--------5---------------------------|
                                    x3
eb--------7--------5------------------|
Bb--------7--------5------------------|
Gb--------8--------6------------------|
Db--------9--------7------------------|
Ab--------9--------7------------------|
Eb--------7--------5------------------|
                                    x2
eb--------0--------5---------4--------|
Bb--------0--------5---------4--------|
Gb--------1--------6---------4--------|
Db--------2--------7---------6--------|
Ab--------2--------7---------6--------|
Eb--------0--------5---------4--------|
                                    x1
eb--------2--------0------------------|
Bb--------2--------0------------------|
Gb--------3--------1------------------|
Db--------4--------2------------------|
Ab--------4--------2------------------|
Eb--------2--------0------------------|
          v                         2x
eb--------4--------2------------------|
Bb--------4--------2------------------|
Gb--------4--------3------------------|
Db--------6--------4------------------|
Ab--------6--------4------------------|
Eb--------4--------2------------------|
                                    x2
eb--------0--------5---------4--------|
Bb--------0--------5---------4--------|
Gb--------1--------6---------4--------|
Db--------2--------7---------6--------|
Ab--------2--------7---------6--------|
Eb--------0--------5---------4--------|
                                    x3
eb-----------------5---------4--------|
Bb-----------------5---------4--------|
Gb-----------------6---------4--------|
Db-----------------7---------6--------|
Ab-----------------7---------6--------|
Eb-----------------5---------4--------|
                                    x1
eb--------0--------5------------------|
Bb--------0--------5------------------|
Gb--------1--------6------------------|
Db--------2--------7------------------|
Ab--------2--------7------------------|
Eb--------0--------5------------------|
                                    x3
eb-----------------5---------4--------|
Bb-----------------5---------4--------|
Gb-----------------6---------4--------|
Db-----------------7---------6--------|
Ab-----------------7---------6--------|
Eb-----------------5---------4--------|
                                    x2
eb--------0--------5---------4--------|
Bb--------0--------5---------4--------|
Gb--------1--------6---------4--------|
Db--------2--------7---------6--------|
Ab--------2--------7---------6--------|
Eb--------0--------5---------4--------|
                                    x2
eb--------0--------------------------|
Bb--------0--------------------------|
Gb--------1--------------------------|
Db--------2--------------------------|
Ab--------2--------------------------|
Eb--------0--------------------------|

just play it like that. if you want an easier way to play it and listen at the same 
this could be helpful:

G#m-F# x 4 / E-Aadd9-G#m x 2 / F#-E / G#m-F# x 4 /

E-Aadd9-G#m x 2 / Aadd9 / Badd4-Aadd9 x 3 / E-Aadd9-G#m x 2 /

F#-E / G#m-F# x 2 / E-Aadd9-G#m x 2 / Aadd9-G#m x 3 /

E-Aadd9 / Aadd9-G#m x 3 / E-Aadd9-G#m x 2 / E /

--4--   --5--   --7--   --0--   --2--|
--4--   --5--   --7--   --0--   --2--|
--4--   --6--   --8--   --1--   --3--|
--6--   --7--   --9--   --2--   --4--|
--6--   --7--   --9--   --2--   --4--|
--4--   --5--   --7--   --0--   --2--|
G#m     Aadd9   Badd4     E       F#


thank you, if you dont mind, rating this would be nice because this is a very accurate
tab for this song.-ryan.
Comments