Smashing Pumpkins - I Am One Chords & Tabs

 

I Am One Chords & Tabs

Smashing Pumpkins Chords & Tabs

Version: 3 Type: Bass Tab 0 ratings
1 star 2 stars 3 stars 4 stars 5 stars
comments

I Am One Bass Tab

                               I AM ONE (Bassline)
                      As recorded by The Smashing Pumpkins
                           (From the 2025 Album GISH)

Transcribed by Scott Bunting
Simple riffs, but really cool. The bass has its own solos and is prominent. 
Overall, a bass players delight.

  Q=110
 4/4
  Gtr I
|-----|
|-----|
|-----|
|-----|


||----------------------|---------------------|
||o---------------------|---------------------|
||o---------------------|---------------------|
||--2-0-0-2-0-2-0-0-0-2-|-2-0-0-2-0-2-0-0-0-2-|


                                             3x
|---------------------|----------------------||
|---------------------|---------------------o||
|---------------------|---------------------o||
|-2-0-0-2-0-2-0-0-0-2-|-2-0-0-2-0-2-0-0-0-2--||


||----------------------|---------------------|
||o---------------------|---------------------|
||o-----------------0-0-|-----------------0-2-|
||--2-0-0-2-0-2-0-0-----|-2-0-0-2-0-2-0-0-----|


                                             4x
|---------------------|----------------------||
|---------------------|---------------------o||
|-----------------0-0-|-----------------0-2-o||
|-2-0-0-2-0-2-0-0-----|-2-0-0-2-0-2-0-0------||


|--------------|--------------|--------------|--------------|
|--------------|--------------|--------------|--------------|
|----------7-7-|----------5-7-|----------7-7-|----------5-7-|
|-0--0--0------|-0--0--0------|-0--0--0------|-0--0--0------|


||----------------------|---------------------|
||o---------------------|---------------------|
||o---------------------|---------------------|
||--2-0-0-2-0-2-0-0-0-2-|-2-0-0-2-0-2-0-0-0-2-|


|---------------------|----------------------||
|---------------------|---------------------o||
|---------------------|---------------------o||
|-2-0-0-2-0-2-0-0-0-2-|-2-0-0-2-0-2-0-0-0-2--||


||----------------------|---------------------|
||o---------------------|---------------------|
||o-----------------0-0-|-----------------0-2-|
||--2-0-0-2-0-2-0-0-----|-2-0-0-2-0-2-0-0-----|


                                             3x
|---------------------|----------------------||
|---------------------|---------------------o||
|-----------------0-0-|-----------------0-2-o||
|-2-0-0-2-0-2-0-0-----|-2-0-0-2-0-2-0-0------||

[ Tab from: http://www.guitartabs.cc/tabs/s/smashing_pumpkins/i_am_one_btab_ver_3.html ]
|--------------|--------------|--------------|--------------|
|--------------|--------------|--------------|--------------|
|----------7-7-|----------5-7-|----------7-7-|----------5-7-|
|-0--0--0------|-0--0--0------|-0--0--0------|-0--0--0------|


||----------------------|---------------------|
||o---------------------|---------------------|
||o-----------------0-0-|-----------------0-2-|
||--2-0-0-2-0-2-0-0-----|-2-0-0-2-0-2-0-0-----|


|---------------------|----------------------||
|---------------------|---------------------o||
|-----------------0-0-|-----------------0-2-o||
|-2-0-0-2-0-2-0-0-----|-2-0-0-2-0-2-0-0------||


||-------------|------------|------------|-------||
||o------------|------------|------------|------o||
||o------------|------------|------------|------o||
||--5---0h5----|-5---0h5----|-5---0h5----|-5-----||


||----------------------|---------------------|
||o---------------------|---------------------|
||o-----------------0-0-|-----------------0-2-|
||--2-0-0-2-0-2-0-0-----|-2-0-0-2-0-2-0-0-----|


|---------------------|----------------------||
|---------------------|---------------------o||
|-----------------0-0-|-----------------0-2-o||
|-2-0-0-2-0-2-0-0-----|-2-0-0-2-0-2-0-0------||


|-----|
|-----|
|-----|
|-----|


|---------------------|---------------------|
|---------------------|---------------------|
|-----------------0-0-|-----------------0-2-|
|-2-0-0-2-0-2-0-0-----|-2-0-0-2-0-2-0-0-----|


|---------------------|----------------------|
|---------------------|----------------------|
|-----------------0-0-|-----------------0-2--|
|-2-0-0-2-0-2-0-0-----|-2-0-0-2-0-2-0-0------|


||-----------|----------|----------|-------||
||o----------|----------|----------|------o||
||o----------|----------|----------|------o||
||--0--------|-0--------|-0--------|-0-----||


||----------------------|---------------------|
||o---------------------|---------------------|
||o-----------------0-0-|-----------------0-2-|
||--2-0-0-2-0-2-0-0-----|-2-0-0-2-0-2-0-0-----|


|---------------------|----------------------||
|---------------------|---------------------o||
|-----------------0-0-|-----------------0-2-o||
|-2-0-0-2-0-2-0-0-----|-2-0-0-2-0-2-0-0------||


|----------|-----------|------------|--------*|
|----------|-----------|------------|--------*|
|----------|-----------|------------|--------*|
|-2--------|-2--2------|-(2)--------|-(2)----*|



***************************************************************************************
* Generated using Power Tab Editor by Brad Larsen - http://powertab.guitarnetwork.org *
***************************************************************************************
Comments