Smashing Pumpkins - Galapogos Chords & Tabs

 

Galapogos Chords & Tabs

Smashing Pumpkins Chords & Tabs

Version: 2 Type: Tab 0 ratings
1 star 2 stars 3 stars 4 stars 5 stars
comments

Galapogos Tab

   
                       G A L A P O G O S 
T U N I N G :                                 Words and music by
Eb Ab Db Gb Bb Eb                             GILLY CORGAN

  D(2)                Dmaj7        
|---0---------0---------9---------9-------|
|-----10--------10--------10--------10----|
|--------11--------11--------11--------11-|
|-0---------0---------0---------0---------|
|-----------------------------------------|
|-----------------------------------------|

  D(2)                Dmaj7
|---0---------0---------9---------9-------|
|-----10--------10--------10--------10----|
|--------11--------11--------11--------11-|
|-0---------0---------0---------0---------|
|-----------------------------------------|
|-----------------------------------------|

  Em/D                 
|-7-----7---------10p7-------7------|
|---8-----8---8----------8-------8--|
|----------------------9-------9----|
|-----0-----0---0----------0--------|
|-----------------------------------|
|-----------------------------------|


  D(2)               
|---0---------0---------0---------0--------|
|-----10--------10--------10--------10-----|
|--------11--------11--------11--------11--|
|-0---------0---------0---------0----------|
|------------------------------------------|
|------------------------------------------|

  Dmaj7
|---9---------9---------9---------9---------|
|-----10--------10--------10--------10------|
|--------11--------11--------11--------11---|
|-0---------0---------0---------0---------0-|
|-------------------------------------------|
|-------------------------------------------|

  Em/D
|-7-----7---------10p7-------7------|
|---8-----8---8----------8-------8--|
|----------------------9-------9----|
|-----0-----0---0----------0--------|
|-----------------------------------|
|-----------------------------------|
[ Tab from: http://www.guitartabs.cc/tabs/s/smashing_pumpkins/galapogos_tab_ver_2.html ]
  Guitar 1
|-------------------------------------------------------------------|
|---------3-----3/---------10----------------0----------------------|
|-----2-----2----------9------9---9/-----7-----7---0------0------0--|
|---0---------0------0----------0------0---------0------9------9----|
|-2-----2----------9-----9-----------7-----7---------10-----10------|
|-------------------------------------------------------------------|
|Guitar 2                                                           |
| Bm7              D/F#              Em              G              | 
|-x----------------x-----------------0---------------3--------------|
|-3----------------3-----------------0---------------3--------------|
|-2----------------2-----------------0---------------0--------------|
|-0----------------0-----------------2---------------0--------------|
|-2----------------0-----------------2---------------2--------------|
|-x----------------2-----------------0---------------3--------------|

 Guitar 1
|----------------------------|
|---------0------------------|
|-----7-----7---0------0-----|
|---0---------0------9-------|
|-7-----7---------10-----10--|
|----------------------------|
|Guitar 2                    |
| Em                         |
|-0--------------------------|
|-0--------------------------|
|-0--------------------------|
|-2--------------------------|
|-2--------------------------|
|-0--------------------------|


 Guitar 1                            4x
|--------------------------------------|
|---17\15-----------12\10---------7\8--|
|-----------14\12-----------9\7--------|
|-0-------0-------0-------0-----0------|
|--------------------------------------|
|--------------------------------------|
|Guitar 2                            4x|
|--------------------------------------|
|---12\10-----------8-\-7--------------|
|-----------9-\-7-----------6/7---6\2--|
|-0-------0-------0-------0-----0------|
|--------------------------------------|
|--------------------------------------|

 Guitar 1 and 2                 3x                              
|-------------------------2-------|
|---0-----0---------0-------0-----|
|-----2-----2---2-----0---------0-|
|-4-----4-----4---2-----2-----2---|
|---------------------------------|
|---------------------------------|

                                  CHORDS

 D(2) Dmaj7 Em/D Bm7 D/F# Em G G(9) Em7/D D5 F#sus Em(9) Dsus2 A Gm/Bb C Em7
 0    9     7    x   x    0  3 12   10    x  x     2     0     0 3     3 0  
 10   10    8    3   3    0  3 10   8     3  o     0     3     2 3     1 3  
 11   11    9    2   2    0  0 11   9     2  2     0     2     2 0     0 0   
 0    12    0    0   0    2  0 0    0     0  4     2     0     2 x     2 2   
 x    0     x    2   0    2  2 x    x     0  x     x     0     0 1     3 2   
 x    x     x    x   x    0  3 x    x     x  x     x     x     x x     x 0

                YOU COULD FIGURE OUT how to put them together
  LYRICS

 aint it funny how we pretend were still a shild
 softly stolen under our blanket skies
 and rescue me from me and all that i believe
 i wont deny the pain 
 i wont deny the change 
 or should i fall from grace here with you 
 would you leave me to 
 carve out your heart for keeps in an old oak tree
 hold me for goodbyes and whispered lullabies
 and tell me i am still the man im supose to be 
 i wont deny the pain  
 i wont deny the change 
 or should i fall from grace here with you
 would you leave me to  
 would you leave me to 
 to late to turn back now 
 im running out of sound
 and i am changing changing 
 and if we died right now 
 this full you love some how
 is here with you  
 i wont deny the pain
 i wont deny the change 
 or should i fall from grace here with you
 would you leave me to 
 would you leave me to
Comments