Smashing Pumpkins - For Martha Chords & Tabs

 

For Martha Chords & Tabs

Smashing Pumpkins Chords & Tabs

Version: 2 Type: Tab 0 ratings
1 star 2 stars 3 stars 4 stars 5 stars
comments

For Martha Tab

   
Guitar 1 (clean)                                                  x2
|-------------------------------------------------------------------|
|----------2---5-----------2---5-----------1---3-----------1---3----|
|--2---4-----------2---4-----------2---4-----------2---4------------|
|----0---0---0---0---0---0---0---0---0---0---0---0---0---0---0---0--|
|-------------------------------------------------------------------|
|-------------------------------------------------------------------|

|----------------------------------------------------------5---7~~~-|
|----------2---5-----------2---5-----------1---3---5---7------------|
|--2---4-----------2---4-----------2---4----------------------------|
|----0---0---0---0---0---0---0---0---0---0---0---0---0---0---0------|
|-------------------------------------------------------------------|
|-------------------------------------------------------------------|


A Bm7 C#m Bm7 E

VERSE
F#m C#m F#m C#m F#m C#m Bm7 E


Guitar 1 chords, Guitar 2 lead (clean)
   Dsus2 Dsus2  F#m     Dsus2 Dsus2  F#m     Dsus2 Dsus2  F#m    E     Bm
|------------------------------------------------------------------------|
|--7p5-5\3-3\2----------7p5-5\3-3\2----------7p5-5\3-3\2-----------------|
|--------------2~~~~~---------------2~~~~~---------------2~~~~~~~~~~-----|
|------------------------------------------------------------------------|
|------------------------------------------------------------------------|
|------------------------------------------------------------------------|

Guitar 2
...goodbye...    ...cry...       ...get by...  ...follow you...
|--7/9~~~----------/5-4~~~----------7/9~~~--------11-10-------------|
|--------------------------------------------------------11---------|
|----------------------------------------------------------------9--|
|-------------------------------------------------------------------|
|-------------------------------------------------------------------|
|-------------------------------------------------------------------|


A Gmaj7 B Amaj9 Gmaj7 Fmaj7
Asus2 Gmaj7 B Amaj9 G6 Fmaj7 Asus2


Guitar 1 chords, Guitar 2 lead (clean)
   Dsus2 Dsus2  F#m     Dsus2 Dsus2  F#m     Dsus2 Dsus2  F#m    E     Bm
|------------------------------------------------------------------------|
|--7p5-5\3-3\2----------7p5-5\3-3\2----------7p5-5\3-3\2-----------------|
|--------------2~~~~~---------------2~~~~~---------------2~~~~~~~~~~-----|
|------------------------------------------------------------------------|
|------------------------------------------------------------------------|
|------------------------------------------------------------------------|

Guitar 2
...goodbye...    ...cry...       ...get by...  ...follow you...
|--7/9~~~----------/5-4~~~----------7/9~~~--------11-10-------------|
|--------------------------------------------------------11---------|
|-------------------------------------------------------------------|
|-------------------------------------------------------------------|
|-------------------------------------------------------------------|
|-------------------------------------------------------------------|


Guitar 1 solo (w/slight distortion)

|-----------------------------------------------------------------------------------------------------|
|--------------------------------------------------------10/12-12--12/14-12-12-10---12-12-10-9-----7--|
|-----------------------------------------------9/11-11-----------------------------------------------|
|--7/9\4~~~~~---4h6p4-2---2-4-2b3r2-4~~~~~~~~---------------------------------------------------------|
|-----------------------------------------------------------------------------------------------------|
|-----------------------------------------------------------------------------------------------------|


Guitar 1                                                          x2
|-------------------------------------------------------------------|
|----------2---5-----------2---5-----------1---3-----------1---3----|
|--2---4-----------2---4-----------2---4-----------2---4------------|
|-------------------------------------------------------------------|
|-------------------------------------------------------------------|
|-------------------------------------------------------------------|

|----------------------------------------------------------5---7~~~-|
|----------2---5-----------2---5-----------1---3---5---7------------|
|--2---4-----------2---4-----------2---4----------------------------|
|-------------------------------------------------------------------|
|-------------------------------------------------------------------|
|-------------------------------------------------------------------|


Guitar 1 2 times, Guitar 2 4 times (w/heavy distortion)
(Figure 1)
[ Tab from: http://www.guitartabs.cc/tabs/s/smashing_pumpkins/for_martha_tab_ver_2.html ]
|-------------------------------------------------------------------|
|--------------5---5/7-7---7-7------------4/7-7---7/9-9---9-9-------|
|------2h4-4/6------------------------4/6---------------------------|
|-------------------------------------------------------------------|
|--0-------------------------------2--------------------------------|
|-------------------------------------------------------------------|
                                                      (end figure 1)
 -------------------------------------------------------------------|
 ------------3---3/5-5---5-5-----5-----5-----(5)--------------------|
 ------0h2/4--------------------------------------------------------|
 -------------------------------------------------------------------|
 -------------------------------------------------------------------|
 --3----------------------------------------------------------------|

Guitar 1 (enter on 3rd time)
(Figure 2) 2 times
                    x4
|---------------------|------------------------------------------------------------------|
|--10h12-12b13r12-12--|-10h12-12b13r12--------8-10-10b11r10-10--10~-10~-*10b11r10b11r10--|
|---------------------|----------------12-12---------------------------------------------|
|---------------------|------------------------------------------------------------------|
|---------------------|------------------------------------------------------------------|
|---------------------|------------------------------------------------------------------|


Guitar 1 lead, Guitar 2 chords
   Dsus2     Dsus2           F#m        Dsus2    Dsus2           F#m
|-----------------------------------|-----------------------------------|
|--10-12-12-12-12b13r12-*10-*12~~~--|--10-12-12-12-12b13r12-*10-*12~~~--|
|-----------------------------------|-----------------------------------|
|-----------------------------------|-----------------------------------|
|-----------------------------------|-----------------------------------|
|-----------------------------------|-----------------------------------|

   Dsus2     Dsus2           F#m    E     Bm
|-------------------------------------------|
|--10-12-12-12-12b13r12-*10-*10~~~~~--------|
|-------------------------------------------|
|-------------------------------------------|
|-------------------------------------------|
|-------------------------------------------|


Guitar 1 and Guitar (w/heavy distortion)
(Figure 1)

|-------------------------------------------------------------------|
|--------------5---5/7-7---7-7-----------4/7-7---7/9-9---9-9--------|
|------2h4-4/6------------------------4/6---------------------------|
|-------------------------------------------------------------------|
|--0-------------------------------2--------------------------------|
|-------------------------------------------------------------------|

 -------------------------------------------------------------------|
 ------------3---3/5-5---5-5-----5-----5-----(5)--------------------|
 ------0h2/4--------------------------------------------------------|
 -------------------------------------------------------------------|
 -------------------------------------------------------------------|
 --3----------------------------------------------------------------|

|-------------------------------------------------------------------|
|--------------5---5/7-7---7-7-----------4/7-7---7/9-9---9-9--------|
|------2h4-4/6------------------------4/6---------------------------|
|-------------------------------------------------------------------|
|--0-------------------------------2--------------------------------|
|-------------------------------------------------------------------|

 ------------------------------------------|
 ------------3---3/5-5---5-5-----5-----5---|
 ------0h2/4-------------------------------|
 ------------------------------------------|
 ------------------------------------------|
 --3---------------------------------------|


Guitar 1 chords, Guitar 2 lead (w/distortion)
   D     D      F#m     D     D      F#m     D     D      F#m    E     Bm
|---------------------------------------------------------------------------|
|--7p5-5\3-3\2----------7p5-5\3-3\2----------7p5-5\3-3\2--------------------|
|--------------2~~~~~---------------2~~~~~---------------2~~~~~--4~~~~~~~~--|
|---------------------------------------------------------------------------|
|---------------------------------------------------------------------------|
|---------------------------------------------------------------------------|

Guitar 1
|------------------------------------------------------------------------------------------|
|------------------------------------------------------------------------------------------|
|-----------------------------------4---4---2-------------------------------4--2-----------|
|--2/4/7---9--------7---9-7\4---2---------------2---4-4/7/4-------4/6----6-----------4-----|
|------------------------------------------------------------------------------------------|
|------------------------------------------------------------------------------------------|


|--0---0---0---0---||
|--2---2---2---2---||
|--4---4---4---4---||
|--2---2---2---2---||
|--0---0---0---0---||
|------------------||
Comments