Smashing Pumpkins - For Martha Chords & Tabs

 

For Martha Chords & Tabs

Smashing Pumpkins Chords & Tabs

Version: 1 Type: Tab 0 ratings
1 star 2 stars 3 stars 4 stars 5 stars
comments

For Martha Tab

   
|-------------0---------------0---------------------------------|play
|-----0---2-----------0---2-----------0---1---3-------0---1---3-|this
|-2---------------2---------------2---------------2-------------|2x
|---4---4---4---4---4---4---4---4---3---3---3---3---3---3---3---|
|---------------------------------------------------------------|
|---------------------------------------------------------------|
|F#m             F#m              F               F             |
|-2---------------2---------------1---------------1-------------|play
|-2---------------2---------------1---------------1-------------|this
|-2---------------2---------------2---------------2-------------|2x
|-4---------------4---------------3---------------3-------------|
|-4---------------4---------------x---------------x-------------|
|-2---------------2---------------x---------------x-------------|

|-------------0-------------0-----------------0---2---5---7-----|
|-----0---2---------0---2---------0---2---3---------------------|
|-2-------------2-------------2---------------------------------|
|---2---2---2-----2---2---2-----0---0---0---0---0---0---0-------|
|---------------------------------------------------------------|
|---------------------------------------------------------------|
|A/E           A/E            D                                 |
|-0-------------0-------------2---------------------------------|
|-2-------------2-------------3---------------------------------|
|-2-------------2-------------2---------------------------------|
|-2-------------2-------------0---------------------------------|
|-x-------------x-------------x---------------------------------|
|-x-------------x-------------x---------------------------------|
[ Tab from: http://www.guitartabs.cc/tabs/s/smashing_pumpkins/for_martha_tab.html ]
|----00-0------------00-0------------00-0-----------------------|
|---2----202--------2----202--------2----202--22232----------22-|
|--2---------------2---------------2---------------2--2---444---|
|-4---------------4---------------4------------------4-4--------|
|---------------------------------------------------------------|
|---------------------------------------------------------------|
|F#m7     C#m    F#m7     C#m    F#m7     F#m7  Bm7       E     |
|-2--------4------2--------4------2--------4-----2--------0-----|
|-2--------5------2--------5------2--------5-----3--------0-----|
|-2--------6------2--------6------2--------6-----2--------1-----|
|-2--------6------2--------6------2--------6-----4--------2-----|
|-4--------4------4--------4------4--------4-----2--------2-----|
|-2--------x------2--------x------2--------x-----x--------0-----|

|-20--------------20------------20------------------------------|
|----2-0-3-20--------2-0-3---------2-0-3-20---------------------|
|------------2-2------------2--------------2-2------------------|
|-------------4------------4-4--------------4-------------------|
|---------------------------------------------------------------|
|---------------------------------------------------------------|
| A     Bm7       A     Bm7     A     Bm7      C#m
|-0------2--------0------2------0------2--------4-----------------------|
|-2------3--------2------3------2------3--------5-----------------------|
|-2------2--------2------2------2------2--------6-----------------------|
|-2------4--------2------4------2------4--------6-----------------------|
|-0------2--------0------2------0------2--------4-----------------------|
|-x------x--------x------x------x------x--------x-----------------------|
Comments