Smashing Pumpkins - Disarm Chords & Tabs

 

Disarm Chords & Tabs

Smashing Pumpkins Chords & Tabs

Version: 2 Type: Bass Tab 0 ratings
1 star 2 stars 3 stars 4 stars 5 stars
comments

Disarm Bass Tab

Disarm by Smashing Pumpkins
From The album Siamese Dream

Play This Until The Second "Oo-hoo hoo he is burned"

G|---------------------------------------------------------------|
D|---------------------------------------------------------------|
A|--------------3-3-3-3-3-3--------------------------------------|
E|--0-0-0-0-0-0-------------3-3-3-3-3-3-3--3--2------------------|
    Disarm you...

Play This For The Second "Oo-hoo hoo he is burned"

G|---------------------------------------------------------------|
D|---------------------------------------------------------------|
A|--------------3-3-3-3-3-3-------------5-5-5-5-5-5--3-3-3-3-3-3-|
E|--0-0-0-0-0-0-------------3-3-3-3-3-3--------------------------|

Play This Until The Bridge
[ Tab from: http://www.guitartabs.cc/tabs/s/smashing_pumpkins/disarm_btab_ver_2.html ]
G|---------------------------------------------------------------|
D|---------------------------------------------------------------|
A|--3-3-3-3-3-3-3-3-3-3-3-3-------------5-5-5-5-5-5-5------------|
E|--------------------------0-0-0-0-0-0--------------------------|
    I used to be a little boy     So  old in my shoes
    And what I choose is my choice, What's a boy...

BRIDGE

G|---------------------------------------------------------------|
D|---------------------------------------------------------------|
A|----------------------------------------5-5-5-5-5-5------------|
E|--0-0-0-0-0-0--0-0-0-0-0-0--0-0-0-0-0-0------------------------|

G|---------------------------------------------------------------|
D|---------------------------------------------------------------|
A|---------------------------5-5-5-5-5-5--3-3-3-3-3-3------------|
E|--0-0-0-0-0-0--0-0-0-0-0-0-------------------------------------|

REPEAT:


Don't complain about any errors, I didn't transcribe the original.  
If you have Down In A Hole, Grind, Heaven Beside You, Man In The Box,
or We Die Young by Alice in Chains could you E-Mail them to me at:
odin@blvl.igs.net

Comments