Smashing Pumpkins - Bullet With Butterfly Wings Chords & Tabs

 

Bullet With Butterfly Wings Chords & Tabs

Smashing Pumpkins Chords & Tabs

Version: 2 Type: Tab 0 ratings
1 star 2 stars 3 stars 4 stars 5 stars
comments

Bullet With Butterfly Wings Tab

|--------------------------------------------------------------------
|----3--3-----------------------------------0--0---------------------
|----4--4-----------4--------------------4--4--4--4------------------
|----4--4-----4--4--4--------------4-----4--4--4--4-4----------------
|----2--2--0--2--2--2--2--2--2--2--2-----0--0--0--0-0----------------
|-------------------3--3--0--0--0--0--0------------------------------


|--------------------------------------------------------------------
|----0--------------0---------------0-------------------0---0--------
|----4----4----4----4---------------4-------------------4---4--------
|----4----4----4----4---------------4---4---4---4---4---4---4---4---4
|----2----2----2----2---2---2---2---2---2---2---2---2---0---0---0---0
|-------------------0---0---0---0---3---3---3---3---3----------------


|--------------------------------------------------------------------
|--------------------------------------------------------------------
|-----------------------------6--6---7---7---7-----------------------
|----9----9---7---5---5---5---6--6---7---7---7---5--5--7--7----14\---
|----9----9---7---5---5---5---4--4---5---5---5---5--5--7--7----14\---
|----7----7---5---3---3---3----------------------3--3--5--5----12\---

[ Tab from: http://www.guitartabs.cc/tabs/s/smashing_pumpkins/bullet_with_butterfly_wings_tab_ver_2.html ]
|-----------------------|---------------
|-----------------------|---------------
|------------------x--x-|---------------
|------------------x--x-|----4----------
|-----------0---0--x--x-|----4----------
|---0---3---------------|----2---0---2/5


|-------------------------------------------------------------------3
|----------0----------3------------3-----------0----------0---------0
|----------4--0----------0------2-----0--------------------------0---
|-------4--------------------0--------------2----------2-------------
|----2-----------------------------------0---------------------------
|-----------------3---------------------------------0---------3------


|----------0---------------0--------------0------------0-------------
|----------0---------------3--------------3------------0-------------
|--------------0---------------0------2-------0-----------0--9\----0-
|-------4--------------0-----------0-----------------2-------9\----0-
|----2--------------------------------------------0----------7\----x-
|------------------3--------------------------------------------0--3-


|-------------------3----3-----------2----2--------------------------
|-------------------3----3-----------3----3--------------------------
|---4---4---4-------0----0-----2-----2----2----------2---2---2---3---
|---4---4---4-------0----0-----0-----0----0----------2-------2---3---
|---2---2---2---0---x----x----------------------0----0-------0---1---
|-------------------3----3-------------------------------------------





Comments