Smashing Pumpkins - Blank Chords & Tabs

 

Blank Chords & Tabs

Smashing Pumpkins Chords & Tabs

Version: 3 Type: Tab 0 ratings
1 star 2 stars 3 stars 4 stars 5 stars
comments

Blank Tab

   
                   
                             B L A N K 
tuning                                              music & lyrics by
Eb Ab Db Gb Bb Eb                                   BILLY CORGAN 

                                                                 5x
|------------------------------------------------------------------|
|-----------------------------------------0---------------0--------|
|---------2-----------4-----4---------2-----2---2-----2-----2---2--|
|-----0-----0---0---2-----2-----2---2---2-----2-----2---2-----2----|
|---0---0-----0-------------------0---------------0----------------|
|-2---------------4-----4-----4------------------------------------|
 
                             3x
|------------------------------|
|---------------------0--------|
|-----2-----4-----2-----2---2--|
|-----0-----2---2---2-----2----|
|---0---------0----------------|
|-2-----2-4--------------------|
[ Tab from: http://www.guitartabs.cc/tabs/s/smashing_pumpkins/blank_tab_ver_3.html ]
                                                                 5x
|------------------------------------------------------------------|
|-----------------------------------------0---------------0--------|
|---------2-----------4-----4---------2-----2---2-----2-----2---2--|
|-----0-----0---0---2-----2-----2---2---2-----2-----2---2-----2----|
|---0---0-----0-------------------0---------------0----------------|
|-2---------------4-----4-----4------------------------------------|

                             7x
|------------------------------|
|---------------------0--------|
|-----2-----4-----2-----2---2--|
|-----0-----2---2---2-----2----|
|---0---------0----------------|
|-2-----2-4--------------------|

                                                the emd
|---------------------------------------------------0--|1 time only
|-----------------------------------------0---------0--|
|---------2-----------4-----4---------2-----2---2---2--|
|-----0-----0---0---2-----2-----2---2---2-----2-----2--|
|---0---0-----0-------------------0---------------0-0--|
|-2---------------4-----4-----4---------------------0--|

                      you could figure out the timing 

lirycs

i wish i was blank
i wish i was blank
i wish i could think
i wish i was blank
id write a letter to you 
and thered be nothing to it
i would have henandhaw 
im just hart to sart it 
i wish i was blank
i wish i was blank
i wish i could think
i wish i was blank
i wish id stand up stright 
i wish id set thing different
i wish id said nothing 
things would be so perfect
i wish myself to keep 
i wish myself soul to sleep
i wish myyself away 
i wish i was blank
Comments