Smashing Pumpkins - Believe Chords & Tabs

 

Believe Chords & Tabs

Smashing Pumpkins Chords & Tabs

Version: 2 Type: Bass Tab 0 ratings
1 star 2 stars 3 stars 4 stars 5 stars
comments

Believe Bass Tab

   
Song: Believe
Artist: Smashing Pumpkins
Album: 1979 Single
Tuning: Eb Ab Db Gb

Bass Part begins at "I want to believe in you dear"

Riff 1
Gb|-------------------------------------------------------------------|
Db|-------------------------------------------------------------------|
Ab|4-4-4-4-4-4-4-4-4-2-2-2-2-2-2-2-2-0-0-0-0-0-0-0-0------------------|
Eb|--------------------------------------------------2-2-2-2-2-2-2-2--|

"I want to believe"

Riff 2
Gb|-----------------|
Db|-----------------|
Ab|7-7-7-7-7-7-7-7--|
Eb|-----------------|

Then after he says "I want to believe in you dear" play this:
[ Tab from: http://www.guitartabs.cc/tabs/s/smashing_pumpkins/believe_btab_ver_2.html ]
Riff 3
Gb|---------------------------------------------------------------------------------|
Db|6-6-6-6-6-6-6-6-7-7-7-7-7-7-7-7-9-9-9-9-9-9-9-9-7-7-7-7-7-7-7-7-7-7-7-7-7-7-7-7--|
Ab|---------------------------------------------------------------------------------|
Eb|---------------------------------------------------------------------------------|

Riff 3 continued
Gb|---------------------------------------------------------------------------------|
Db|--------------------------------6-6-6-6-6-6-6-6-7-7-7-7-7-7-7-7-9-9-9-9-9-9-9-9--|
Ab|7-7-7-7-7-7-7-7-9-9-9-9-9-9-9-9--------------------------------------------------|
Eb|---------------------------------------------------------------------------------|

When it does get quiet slide up to a 12 on E.

When everyone is back playing play E (7th Fret on A) and then open A's.

Switch back and forth untill the end.

This tab was made by Nathan Amber. Send Questions and Comments to
iha_eeha@hotmail.com



Comments