Smashing Pumpkins - Age Of Innocence Chords & Tabs

 

Age Of Innocence Chords & Tabs

Smashing Pumpkins Chords & Tabs

Version: 1 Type: Chords 0 ratings
1 star 2 stars 3 stars 4 stars 5 stars
comments

Age Of Innocence Chords

   
Smashing Pumpkins
"Age of Innocence"
MACHINA/the machines of God
Tabbed by: I_ME_MYSELF

Intro/Chorus:

repeat stuff inside asteriks (*)

bass comes in at 0:14 with

G
D
A
E|6-6-6-6-4-4-4-4-2-2-2-2

G
D
A
E|*-9-9-9-9-6-6-6-6-4-4-4-4-2-2-2-2-*

Prechorus ("No more the eye upon you"):

G
D
A
E|2-----4-----2-----4-----4-2-0-2-2-----2-----4-----2-----4

Chorus ("Desolation yes hesitation no"):
[ Tab from: http://www.guitartabs.cc/tabs/s/smashing_pumpkins/age_of_innocence_crd.html ]
G
D
A
E|*-2--4--6----4----2-*

Bridge (just after the chorus):

G
D
A
E|*-2-2-2-2-2-2-2-2-*

Intro/Chorus
Prechorus
Chorus

Pause for guitar/vocal break; bass comes back in at 3:00 with

G
D
A
E|*-0-----4-*

G
D
A
E|2----4----0----4----2----4----0

Chorus

but at "we won't make it home" play

G
D
A
E|2-4-6---9---6---2--4--6----4----2----2--4--6----4----2
Comments