Smashing Pumpkins - A Night Like This Chords & Tabs

 

A Night Like This Chords & Tabs

Smashing Pumpkins Chords & Tabs

Version: 1 Type: Bass Tab 0 ratings
1 star 2 stars 3 stars 4 stars 5 stars
comments

A Night Like This Bass Tab

   
Song: A Night Like This
Artist: Smashing Pumpkins
Album: BWBW Single
Tunning:  Eb Ab Db Gb

Riff 1
Gb|------------|
Db|------------|
Ab|---5--2--5--|
Eb|2-----------|

When he sings "Coming to find you" play this:

Riff 2
Gb|------------|
Db|------------|
Ab|4------2----|
Eb|------------|

Then play this when he sings "For always and ever.."

Riff 3
Gb|--------------------------------------------|
Db|--------------------------------------------|
Ab|4--------4-------2-----------------------7--|
Eb|------4---------------2--4-4-4-4-4-4-4-4----|
[ Tab from: http://www.guitartabs.cc/tabs/s/smashing_pumpkins/a_night_like_this_btab.html ]
Then Riff 1 and Riff 2 then

And again when he sings "Oh I want to change..." play:

Riff 4                                               
Gb|----------------------------------------------------|
Db|----------------------------------------------------|
Ab|5--5-5--5-5-5-7--7-7--7-7-7-9--9-9--9-9-9--9--9--9--|
Eb|----------------------------------------------------|

When it starts to get quiet play a D(5th fret on a) then an E(7th fret on a)
Then Riff 2, Riff 4

this tab was made by Nathan Amber. Send comments and questions to
iha_eeha@hotmail.com



Comments