Smashing Pumpkins - A Certain Kind Of Change Chords & Tabs

 

A Certain Kind Of Change Chords & Tabs

Smashing Pumpkins Chords & Tabs

Version: 1 Type: Tab 0 ratings
1 star 2 stars 3 stars 4 stars 5 stars
comments

A Certain Kind Of Change Tab

A Certain Kind of Change-
-tuning: standard


intro                         x2
|--5--5--0--0--|--3--2--0--0---|
|--5--5--0--0--|--3--3--0--0---|
|--7--6--7--7--|--4--4--4--4---|
|--7--7--7--7--|--5--4-(4)(4)--|
|--5--7--0--0--|--5--2---------|
|--5--5--0--0--|--3--2---------|


verse1
|--0--2--0--0--|--3--0--2--2--|--0--0--2--2--|--3--2--0--0--|
|--0--3--0--0--|--3--0--3--3--|--0--0--3--3--|--3--3--0--0--|
|--4--4--2--2--|--4--4--4--4--|--2--4--4--4--|--4--4--2--2--|
|-(4)-4--2--2--|--5-(4)-4--4--|--2-(4)-4--4--|--5--2--2--2--|
|-----2--------|--5-----2--2--|--------2--2--|--5--2--------|
|-----2--------|--3-----2--2--|--------2--2--|--3--2--------|

              x2
|--0--0--0--0--|
|--0--0--0--0--|
|--7--6--4--4--|
|--7--7--5--5--|
|--0--7--5--5--|
|--0--5--3--3--|


|--5--5--0--0--|--3--2--0--0---|
|--5--5--0--0--|--3--3--0--0---|
|--7--6--7--7--|--4--4--4--4---|
|--7--7--7--7--|--5--4-(4)(4)--|
|--5--7--0--0--|--5--2---------|
|--5--5--0--0--|--3--2---------|


chorus1                      x2
|--5--5--0--0--|--3--2--0--0---|
|--5--5--0--0--|--3--3--0--0---|
|--7--6--7--7--|--4--4--4--4---|
|--7--7--7--7--|--5--4-(4)(4)--|
|--5--7--0--0--|--5--2---------|
|--5--5--0--0--|--3--2---------|


prechorus                    x2
|--0--0--0--0--|--0--0--0--0--|
|--0--0--0--0--|--0--0--0--0--|
|--7--7--6--6--|--4--4--4--4--|
|--7--7--7--7--|--5--5--5--5--|
|--0--0--7--7--|--5--5--5--5--|
|--0--0--5--5--|--3--3--3--3--|


chorus2                      x2
|--5--5--0--0--|--3--2--0--0---|
|--5--5--0--0--|--3--3--0--0---|
|--7--6--7--7--|--4--4--4--4---|
|--7--7--7--7--|--5--4-(4)(4)--|
|--5--7--0--0--|--5--2---------|
|--5--5--0--0--|--3--2---------|

[ Tab from: http://www.guitartabs.cc/tabs/s/smashing_pumpkins/a_certain_kind_of_change_tab.html ]
verse2
|--0--2--0--0--|--3--0--2--2--|--0--0--2--2--|--3--2--0--0--|
|--0--3--0--0--|--3--0--3--3--|--0--0--3--3--|--3--3--0--0--|
|--4--4--2--2--|--4--4--4--4--|--2--4--4--4--|--4--4--2--2--|
|-(4)-4--2--2--|--5-(4)-4--4--|--2-(4)-4--4--|--5--2--2--2--|
|-----2--------|--5-----2--2--|--------2--2--|--5--2--------|
|-----2--------|--3-----2--2--|--------2--2--|--3--2--------|

              x2
|--0--0--0--0--|
|--0--0--0--0--|
|--7--6--4--4--|
|--7--7--5--5--|
|--0--7--5--5--|
|--0--5--3--3--|


|--5--5--0--0--|--3--2--0--0---|
|--5--5--0--0--|--3--3--0--0---|
|--7--6--7--7--|--4--4--4--4---|
|--7--7--7--7--|--5--4-(4)(4)--|
|--5--7--0--0--|--5--2---------|
|--5--5--0--0--|--3--2---------|


chorus3                       x2
|--5--5--0--0--|--3--2--0--0---|
|--5--5--0--0--|--3--3--0--0---|
|--7--6--7--7--|--4--4--4--4---|
|--7--7--7--7--|--5--4-(4)(4)--|
|--5--7--0--0--|--5--2---------|
|--5--5--0--0--|--3--2---------|


prechorus                    x2
|--0--0--0--0--|--0--0--0--0--|
|--0--0--0--0--|--0--0--0--0--|
|--7--7--6--6--|--4--4--4--4--|
|--7--7--7--7--|--5--5--5--5--|
|--0--0--7--7--|--5--5--5--5--|
|--0--0--5--5--|--3--3--3--3--|


chorus4                      x2
|--5--5--0--0--|--3--2--0--0---|
|--5--5--0--0--|--3--3--0--0---|
|--7--6--7--7--|--4--4--4--4---|
|--7--7--7--7--|--5--4-(4)(4)--|
|--5--7--0--0--|--5--2---------|
|--5--5--0--0--|--3--2---------|

outro
|--0--2--0--0--|--3--0--2--2--|--0--0--2--2--|--3--2--0--0--|
|--0--3--0--0--|--3--0--3--3--|--0--0--3--3--|--3--3--0--0--|
|--4--4--2--2--|--4--4--4--4--|--2--4--4--4--|--4--4--2--2--|
|-(4)-4--2--2--|--5-(4)-4--4--|--2-(4)-4--4--|--5--2--2--2--|
|-----2--------|--5-----2--2--|--------2--2--|--5--2--------|
|-----2--------|--3-----2--2--|--------2--2--|--3--2--------|

              x2
|--0--0--0--0--|
|--0--0--0--0--|
|--7--6--4--4--|
|--7--7--5--5--|
|--0--7--5--5--|
|--0--5--3--3--|


|--5--5--0--0--|--3--2--0--|
|--5--5--0--0--|--3--3--0--|
|--7--6--7--7--|--4--4--4--|
|--7--7--7--7--|--5--4-(4)-|
|--5--7--0--0--|--5--2-----|
|--5--5--0--0--|--3--2-----|
Comments