Smashing Grapes - I Wanna Be Britney Spears Chords & Tabs

 

I Wanna Be Britney Spears Chords & Tabs

Smashing Grapes Chords & Tabs

Version: 1 Type: Tab 0 ratings
1 star 2 stars 3 stars 4 stars 5 stars
comments

I Wanna Be Britney Spears Tab

Author/Artist: Smashing Grapes
Title: I Wanna Be Britney Spears
Website: http://smashinggrapes.cjb.net

WORDS & MUSIC BY: Kenneth Peng
[ Tab from: http://www.guitartabs.cc/tabs/s/smashing_grapes/i_wanna_be_britney_spears_tab.html ]
INTRO
------------------------------------------------------------------------------
------------------------------------------------------------------------------
----------------7-7-7-7-7-7-7-------------------------------------------------
-7-7-7-7-7-7-7--7-7-7-7-7-7-7-7-7-7-7-7-7-7--4-4-4-4-4-4-4--------------------
-7-7-7-7-7-7-7--5-5-5-5-5-5-5-7-7-7-7-7-7-7--4-4-4-4-4-4-4--------------------
-5-5-5-5-5-5-5----------------5-5-5-5-5-5-5--2-2-2-2-2-2-2--------------------
                                                                              
VERSES/CHORUS
------------------------------------------------------------------------------
------------------------------------------------------------------------------
-----------------------------9-9-9-9------------------------------------------
--7-7-7-7--4-4-4-4--9-9-9-9--9-9-9-9------------------------------------------
--7-7-7-7--4-4-4-4--9-9-9-9--7-7-7-7------------------------------------------
--5-5-5-5--2-2-2-2--7-7-7-7---------------------------------------------------
                                                                              

LYRICS-

INTRO x3

VERSE 2
I want to get a boob job, toooooooo
I want to dress, in skimpy clooooooothes
Cause I want to be, like Britney, tuuuuoooo
Who wouldn't want to be like Britney SPE ARS!!

CHORUS
I want to be, like Britney, Speeeeeeeaars
I want to be, like Britney, Speeeeeeeaars
Britney come, and take me, away from heeere!
Cause I wanna be, like Brit Brit Brit Britney Speears!

CHORUS RIFF x2

VERSE 2
I wanna dance nude when I'm on M T VVVVVVVVVVVVVVVVV
I wanna let my boobs show so you can seeeeeeeeeeeee
I want to be the biggest whore I can beeeeeeeeeeee
Cause I want to be, like Brit Brit, Brit Brit Britney!

CHORUS RIFF x1

CHORUS x1

CHORUS RIFF x2 TILL FADE

-----------------------------------------------------
VISIT SMASHINGGRAPES.CJB.NET FOR FREE DOWNLOADS OF THIS SONG AND MORE!
-----------------------------------------------------
Comments