Smashing Grapes - Drown Chords & Tabs

 

Drown Chords & Tabs

Smashing Grapes Chords & Tabs

Version: 1 Type: Tab 0 ratings
1 star 2 stars 3 stars 4 stars 5 stars
comments

Drown Tab

ARTIST: Smashing Grapes
SONG: Drown
WEBSITE: http://smashinggrapes.cjb.net

WORDS & MUSIC BY: Kenneth Peng
[ Tab from: http://www.guitartabs.cc/tabs/s/smashing_grapes/drown_tab.html ]
INTRO/INTERLUDE
------------------------------------------------------------------------------
------------------------------------------------------------------------------
-9-9-9-9-9-9--4-4-4-4-4-4--2-2-2-2-2-2--4-4-4--11-11--------------------------
-9-9-9-9-9-9--4-4-4-4-4-4--2-2-2-2-2-2--4-4-4--11-11--------------------------
-7-7-7-7-7-7--2-2-2-2-2-2--0-0-0-0-0-0--2-2-2--9--9--------------------------
------------------------------------------------------------------------------
                                                                              
VERSES
------------------------------------------------------------------------------
------------------------------------------------------------------------------
-9-9-9-9-9-9-9-9-9-9--2-2-2-2-2-2-2-2-2--4-4-4-4-4-4--2-2-2-2-2---------------
-9-9-9-9-9-9-9-9-9-9--2-2-2-2-2-2-2-2-2--4-4-4-4-4-4--2-2-2-2-2---------------
-7-7-7-7-7-7-7-7-7-7--0-0-0-0-0-0-0-0-0--2-2-2-2-2-2--0-0-0-0-0---------------
------------------------------------------------------------------------------
                                                                              
BRIDGE
-----------------------------------------------------------------------------
-----------------------------------------------------------------------------
-9-----4-----6-----2---------------------------------------------------------
-9-----4-----6-----2---------------------------------------------------------
-7-----2-----4-----0---------------------------------------------------------
-----------------------------------------------------------------------------
                                                                              
CHORUS
------------------------------------------------------------------------------
------------------------------------------------------------------------------
-9-9-9-9-9-9--4-4-4-4-4-4--6-6-6-6-6-6--2-2-2-2-2-2-2-------------------------
-9-9-9-9-9-9--4-4-4-4-4-4--6-6-6-6-6-6--2-2-2-2-2-2-2-------------------------
-7-7-7-7-7-7--2-2-2-2-2-2--4-4-4-4-4-4--0-0-0-0-0-0-0-------------------------
------------------------------------------------------------------------------
                                                                              

INTRO x2

VERSE-
You've lost all your hope, you're gonna drown, you could see it's quite profound,
I warned you a million times, before, so stop coming back for more,
you took me for granted, the things you need, now you've lost it all to greed,
you fall apart, you're gonna drown, but you're not cause I'm around.

BRIDGE-
It's ok, look away, you'll be alright with me, 
and I'll stay, by your side, be together taking strides.

CHORUS-
And we'll stay, don't look away, you're gonna drown,
but I'm around,
Just hold on, you'll be ok, and you'll see another day

INTERLUDE x2

VERSE-
Then another day goes by, don't you worry, don't you cry,
When the world leaves you behind, then just open up your eyes
when you feel nobody cares, I'm the one that's standing there,

BRIDGE

INTERLUDE x2

CHORUS

INTERLUDE x2

CHORUS

ENDING-
And We'll Stay...

----------------------------------------------------------
VISIT http://smashinggrapes.cjb.net FOR FREE DOWNLOADS
----------------------------------------------------------
Comments