Smash Mouth - Padrino Chords & Tabs

 

Padrino Chords & Tabs

Smash Mouth Chords & Tabs

Version: 1 Type: Bass Tab 0 ratings
1 star 2 stars 3 stars 4 stars 5 stars
comments

Padrino Bass Tab

  BTAB: Padrino
Artist: Smashmouth
 Album: Fush Yu Mang
Author: Rattman (jratt0@hotmail.com)

**Padrino's Bass Tab Exclusive!**
Intro (slow and quiet during guitar solo):
G---------------------------------
D---------------------------------
A----3~----5~-6~------------------
E-3~----3~-------0~-1-0-1~-1~-3---

G-------------------------
D-------------------------
A-------------------------
E-1~-/4~-/9~-8~-1~-/4-3-x-

[drums enter]

Transistion (played in between parts):
G-----------------
D-----------------
A-3---3---3---3---
E---3---3---3---3-

Verse:
G---------------------------------
D-------5-3---3-------------------
A-3-5-6-----3---3---2-3-5-3---3---
E-----------------3---------3---3-

Pre-Chorus:
"Rev up the lincoln..."
G---------------------------------------------------------------------------
D---------------------------------------------------------------------------
A-----------------3-3-3-3----------------------3-3-3------------------------
E-1-1-1-1-3-3-3-3----------[3h4-3-1-0]-1-1-1-1-------3-3-3-3-3-[3h4-3-1-0-]-
[ Tab from: http://www.guitartabs.cc/tabs/s/smash_mouth/padrino_btab.html ]
Chorus:
(follows vocals)
 "I'm a conesiuer..."
G-------------------------------------------------
D-------------------------------------------------
A-3-3-3-6-5-3-2-2-3-5-3~--3/5/6/8/10~-3-3\1-1-----
E---------------------------------------------3-4-

Guitar Solo and "I know its not a wise thing to do...":
G-------------------|-----------------------------
D-------------------|-------5-3-5-6---------------
A-[PLAY VERSE ONCE]-|-3-5-6-----------2-3-5-3---3-
E-------------------|---------------3---------3---

"Where Men Sit like Gentlemen..."
G-------------------------------------------------------------
D-------------------------------------------------------------
A-8-8-8-8-6-6-6-6-4-4-4-4-3-3-3-----------------3-3-----3---3-
E-------------------------------1-1-1-1-3-3-3-3-----3-3---3---

"Stay Outta the papers!"
G--------------------------------------
D--------------------------------------
A-------------------------/13-13-13-13-
E-/12-12-12-12-x---/15-15--------------

"Leave the singin to sinatra..."
G---------------------------
D---------------------------
A-3~-------3~-------3----3--
E------3~------3~------3----

"I'm a Man Of respect..."
G---------------
D---------------
A-3-3-1-1-------
E---------4-4-3-


End Note:
G-----
D-----
A-3~--
E-----
    
Taken from Padrino's Bass Tab Archive: http://members.xoom.com/jszalma/

Comments