Smash Mouth - Im A Believer Chords & Tabs

 

Im A Believer Chords & Tabs

Smash Mouth Chords & Tabs

Version: 3 Type: Tab

Im A Believer Tab

   
This is my first tab so tell me if it is easy to understand, thanks.

e-5-----------5-|
a---3-4-555-3---|
d---------------|   X4
g---------------|
b---------------|
e---------------|


e-10------------10--|
a---8-9-101010-8----|
d-------------------| x2
g-------------------|
b-------------------|
e-------------------|

e-5-----------5-|
a---3-4-555-3---|
d---------------|   x2
g---------------|
b---------------|
e---------------|
[ Tab from: http://www.guitartabs.cc/tabs/s/smash_mouth/im_a_believer_tab_ver_3.html ]
e----------------------|
a-12-10-11-121212-10-7-|
d----------------------|
g----------------------|
b----------------------|
e----------------------|

e------------------|
a-12-11-101010-8-5-|
d------------------|
g------------------|
b------------------|
e------------------|

e-5-----------5-|
a---3-4-555-3---|    play this twice like the top but on the second time
d---------------|    don't play after you hit the fifth fret once on
g---------------|    the a string, thats the end of the solo.
b---------------|
e---------------|