Smalltown Poets - Ill Give Chords & Tabs

 

Ill Give Chords & Tabs

Smalltown Poets Chords & Tabs

Version: 2 Type: Bass Tab 0 ratings
1 star 2 stars 3 stars 4 stars 5 stars
comments

Ill Give Bass Tab

   
Song: "I'll Give"
Artist: SmallTown Poets
Album: SmallTown Poets (c) 1996 ardent/koala & smalltown poetry
Words&Music: Smalltown Poets
Tabbed By: Ken Bonner (bonner@iserv.net)

Intro & Verses:
e--------------------------------
B---4---4---4-5---5---5-----2-0--
G-4---4---4-----4---4---4-2------
[ Tab from: http://www.guitartabs.cc/tabs/s/smalltown_poets/ill_give_btab_ver_2.html ]
*Repeat until 2nd line of Verses, then play..
C#m B2 A2 x1
C#m B2 A2 B2 x1

Chorus:
E A2 B2 x2
C#2 B2 A2 x1

Solo:
G--------------------------------
D-4/6-4-2-1-2-4---1---4/6-4-2-6--
A---------------4----------------
E--------------------------------

G--------------------------------
D-7-9-11-9----6---4--------------
A--------------------------------
E--------------------------------
Comments