Smalltown Poets - If Youll Let Me Love You Chords & Tabs

 

If Youll Let Me Love You Chords & Tabs

Smalltown Poets Chords & Tabs

Version: 1 Type: Bass Tab 0 ratings
1 star 2 stars 3 stars 4 stars 5 stars
comments

If Youll Let Me Love You Bass Tab

If You'll Let Me Love You
By: Smalltown Poets 
Album: Smalltown Poets  
Written by: Danny Stephens, Michael Johnston, Miguel Dejesus
From: James T Beahan	
(C) 1996 Ardent/Koala (ascap) 

If you don't think this tab is complete, e-mail me at: skilletrocks@hotmail.com
 
 
16 measures no bass

                                            x7                          
G-----------------------------------------------------------------------
D-------------0----0----------------------------------------------------
A---------------------------------3----3--------------3---------3-------
E---3----3--------------0----0-----------------------------0------------
                                                                        

                                  x1                                    
G-----------------------------------------------------------------------
D---0----2---------2----0-----------------------------0----0------------
A-------------3--------------3------------------------------------------
E-------------------------------------------3----3--------------0-------
                                                                        

                   x4                                                   
G-----------------------------------------------------------------------
D----------------------------0----0--------------0----0-----------------
A--------3----3------------------------3----3--------------3----3-------
E---0-------------------------------------------------------------------
                                                                        
[ Tab from: http://www.guitartabs.cc/tabs/s/smalltown_poets/if_youll_let_me_love_you_btab.html ]
                                                                        
G-----------------------------------------------------------------------
D---0----0--------------0-----------------------------------------------
A-------------3----3---------3----3----3----3----3----3----3----3-------
E-----------------------------------------------------------------------
                                                                        

                   10 measures no bass                                  
G-----------------------------------------------------------------------
D-----------------------------------------------------0----0------------
A---3----3----3---------------------------------------------------------
E-------------------------------------------3----3--------------0-------
                                                                        

                   x3                                                   
G-----------------------------------------------------------------------
D---------------------------------2---------0----2---------2----0-------
A--------3----3--------------3---------3--------------3-----------------
E---0-------------------------------------------------------------------
                                                                        

                                                      x2                
G-----------------------------------------------------------------------
D--------2---------0----2---------2----0-------------------2----0-------
A---3---------3--------------3--------------3----3----------------------
E-----------------------------------------------------------------------
                                                                        





Comments