Small Faces - All Or Nothing Chords & Tabs

 

All Or Nothing Chords & Tabs

Small Faces Chords & Tabs

Version: 1 Type: Tab 0 ratings
1 star 2 stars 3 stars 4 stars 5 stars
comments

All Or Nothing Tab

   
Thursday 21st December 2000, 2.33pm

ALL OR NOTHING by THE SMALL FACES

Written by Steve Marriott and Ronnie Laine

This totally right, but then these things never are. Sounds okay to me though...

Intro:

  D                                                 
-----------2h3--2--|-----------2h3p2--------|         
--------3----------|--------3---------3-----|         -----2-------------|-----2---------------2--|(x2)     
--0----------------|--0---------------------|         
-------------------|------------------------|         
-------------------|------------------------|         

Verse:

  A                                                  D
-----------------------|--------------------------|-----------2h3--2--|-----------2h3p2--------
-----------2--------2--|-----------2-----------2--|--------3----------|--------3---------3-----
--------2--------2-----|--------2-----2-----2-----|-----2-------------|-----2---------------2--
-----2--------2--------|-----2-----------2--------|--0----------------|--0---------------------
--0--------------------|--0-----------------------|-------------------|------------------------
-----------------------|--------------------------|-------------------|------------------------

  A                                                  D
-----------------------|--------------------------|-----------2h3--2--|-----------0--|
-----------2--------2--|-----------2-----------2--|--------3----------|--------3--2--|
--------2--------2-----|--------2-----2-----2-----|-----2-------------|-----2-----2--|
-----2--------2--------|-----2-----------2--------|--0----------------|--0--------2--|
--0--------------------|--0-----------------------|-------------------|-----------0--|
-----------------------|--------------------------|-------------------|--------------|

  G                       D    A                       G
--3--3--3--3--|--3--3--3--2-|--0--0--0--0--|--0--0--0--3--|
--3--3--3--3--|--3--3--3--3-|--2--2--2--2--|--2--2--2--3--|
--0--0--0--0--|--0--0--0--2-|--2--2--2--2--|--2--2--2--0--|
--0--0--0--0--|--0--0--0--0-|--2--2--2--2--|--2--2--2--0--|
--2--2--2--2--|--0--0--0----|--0--0--0--0--|--0--0--0--2--|
--3--3--3--3--|--3--3--3----|--------------|-----------3--|

Chorus:
[ Tab from: http://www.guitartabs.cc/tabs/s/small_faces/all_or_nothing_tab.html ]
  D                       A     B7                      A     G            
--2--2--2--2--|--2--2--2--0--|--------------|-----------0--|--3--3--3--3--|--3--3--------|
--3--3--3--3--|--3--3--3--2--|--0--0--0--0--|--0--0--0--2--|--3--3--3--3--|--3--3--------|
--2--2--2--2--|--2--2--2--2--|--2--2--2--2--|--2--2--2--2--|--0--0--0--0--|--0--0--------|
--0--0--0--0--|--0--0--0--2--|--1--1--1--1--|--1--1--1--2--|--0--0--0--0--|--0--0--------|
--------------|-----------0--|--2--2--2--2--|--2--2--2--0--|--2--2--2--2--|--2--2--------|
--------------|--------------|--------------|--------------|--3--3--3--3--|--3--3--------|

Repeat intro, verse and chorus then:

  D
-----------2h3--2--|-----------2h3p2--------|-----------3--3/5--|-----------2h3p2--------|
--------3----------|--------3---------3-----|--------3----------|--------3---------3-----|
-----2-------------|-----2---------------2--|-----2-------------|-----2---------------2--|
--0----------------|--0---------------------|--0----------------|--0---------------------|
-------------------|------------------------|-------------------|------------------------|
-------------------|------------------------|-------------------|------------------------|


Repeat verse and chorus then:

  A                            D5                              A5  B5
--0--0--0--0--|--0--0--0--0--|-----------------|-----------------|-----------------|
--2--2--2--2--|--2--2--2--2--|-----------------|-----------------|-----------------|
--2--2--2--2--|--2--2--2--2--|-2-2-2-2-2-2-2-2-|-2-2-2-2-2-2-2---|-----------------|
--2--2--2--2--|--2--2--2--2--|-0-0-0-0-0-0-0-0-|-0-0-0-0-0-0-0-2-|-4-4-4-4-4-4-4-4-|
--0--0--0--0--|--0--0--0--0--|-----------------|---------------0-|-2-2-2-2-2-2-2-2-|
--------------|--------------|-----------------|-----------------|-----------------|
                              palm mute...

 B5            A5  G5                G5            G#5  A                               
-----------------|-----------------|-----------------|------------|--5--------------|
-----------------|-----------------|-----------------|------------|--5--------------|
-----------------|-----5p4-----5p4-|-----------------|------------|--6--------------|
-4-4-4-4-4-4-4-2-|-----5-5-----5-5-|-----------------|-------7----|--7--------------|
-2-2-2-2-2-2-2-0-|-5-5-----5-5-----|-5-5-5-5-5-5-5-6-|------------|--7--------------|
-----------------|-3-3-----3-3-----|-3-3-3-3-3-3-3-4-|--5---------|--5--------------|
 palm mute...                                           let ring...


Repeat chorus then:

  D
-----------2h3--2--|-----------2h3p2--------|-----------2h3--2--|
--------3----------|--------3---------3-----|--------3----------|
-----2-------------|-----2---------------2--|-----2-------------|
--0----------------|--0---------------------|--0----------------|
-------------------|------------------------|-------------------|
-------------------|------------------------|-------------------|
                                                             let last note ring.

Comments