Sly Caps - The Boring Life Chords & Tabs

 

The Boring Life Chords & Tabs

Sly Caps Chords & Tabs

Version: 1 Type: Tab 0 ratings
1 star 2 stars 3 stars 4 stars 5 stars
comments

The Boring Life Tab

   
--------------------------------------------------------------------------------
			     The Boring Life - The Sly Caps
--------------------------------------------------------------------------------
Tabbed by: Skynyrd 1515

Tuning:EADGBe

		      Verse
e|-------------4----6--------------------------------------------------------|
B|-------------4----6--------------------------------------------------------|
G|---8----5----5----7--------------------------------------------------------|
D|---8----5----6----8--------------------------------------------------------|
A|---6----3----6----8--------------------------------------------------------|
E|-------------4----6--------------------------------------------------------|
     D#   C    G#   A#
		     
[ Tab from: http://www.guitartabs.cc/tabs/s/sly_caps/the_boring_life_tab.html ]
                      Chorus
e|---4----6---------6--------------------------------------------------------|
B|---4----6---------6--------------------------------------------------------|
G|---5----7----8----7----5---------------------------------------------------|
D|---6----8----8----8----5---------------------------------------------------|
A|---6----8----6----8----3---------------------------------------------------|
E|---4----6---------6--------------------------------------------------------|
     G#   A#   D#   A#   C


i dont have the solo yet...i am still working on it....

| /  slide up
| \  slide down
| h  hammer-on
| p  pull-off
| ~  vibrato
| +  harmonic
| x  Mute note
===========================================================================
Comments