Sly Caps - The Boring Life Chords & Tabs

 

The Boring Life Chords & Tabs

Sly Caps Chords & Tabs

Version: 1 Type: Bass Tab 0 ratings
1 star 2 stars 3 stars 4 stars 5 stars
comments

The Boring Life Bass Tab

hay ya i am the only one to tab this amazing song, ya so everyone after me learns
from me... Ya but this tab isn't exact didn wanna confuse anyone, wanted everyone
to have a challenge.so it's got the just of it.. 

Intro
[ Tab from: http://www.guitartabs.cc/tabs/s/sly_caps/the_boring_life_btab.html ]
G----------------------------------
D-------7---------------7--------7-
A-55-6-7--55-6-7--7-55-6--7-55-6---
E----------------------------------

verse
G----------------------------------
D-------7---------------7--------7-
A-55-6-7--55-6-7--7-55-6--7-55-6---
E----------------------------------
Comments