Slowcoaster - Moth Caught Chords & Tabs

 

Moth Caught Chords & Tabs

Slowcoaster Chords & Tabs

Version: 1 Type: Chords 1 rating
1 star 2 stars 3 stars 4 stars 5 stars
comments

Moth Caught Chords

   
Slowcoaster - Moth Caught

Chords:
c#m - x57565
  E - 022100
  A - x02220
 b7 - x21200


Intro: c#m   E   A    repete

Riff played over intro:
--11p9-------------11p9------------------
-------9------9---------9---------------
---------9----------------9-----11--9-----
-----------11---------------------------
----------------------------------------
------------------------------------------

[ Tab from: http://www.guitartabs.cc/tabs/s/slowcoaster/moth_caught_crd.html ]
Verse:
c#m                   E           A
Your Rrapped around this tungsten coil
c#m                E                A
and there just aint no cure after 11 am
       c#m            E          A
your a hasty wineing little boy she said
        c#m                     E              A          c#m   E     A
better free yourself from this finger trap if you can
    c#m        E      A
if you        can


Verse2:


Pre Chorse:
      b7                               A  
Empty Bottles From a circle around my self
       b7                              A
i point finger round the room till i point them rite at myself
          b7                   A
if i get weak i guess i just did it to myself
              b7                       A
and if i pass out then i guess i just did it to myself


Chorus:
Thre was a moth caught last november
---0--------------0---------
---0--------------0---------
---1--------------1---------       (for chorus jsut strum an E chord with the hammer ons i show
---2--------------2---------
---0------------0h2---------
-0h2--------------0---------		


Solo over verse chords:

Verse3:

Chorus:

Outro: play verse chords

Comments