Sloppy Meateaters - Who Cares Chords & Tabs

 

Who Cares Chords & Tabs

Sloppy Meateaters Chords & Tabs

Version: 1 Type: Tab 0 ratings
1 star 2 stars 3 stars 4 stars 5 stars
comments

Who Cares Tab

hi im the alx,
this is a song that i just tabbed, i hope you like it.

BAND: SLOPPY MEAT EATERS
SONG: WHO CARES
TABBED BY: THE ALX

---------------------------------------------------------------------------------------------------------------------------------------
---------------------------------------------------------------------------------------------------------------------------------------
----------------------------------------------------------------------------------------------------------------------------------------
--13--5--10--6---666666666/13---13-13-13--5--10--10-10-10--6-5---13-13-13--5--10--10-10-10--6-5-       
--13--5--10--6---666666666/13---13-13-13--5--10--10-10-10--6-5---13-13-13--5--10--10-10-10--6-5-  
--11--3---8---4---444444444/11---11-11-11--3---8----8---8---8--4-3---11-11-11--3---8----8---8---8--4-3- 


---------------------------------------------------------------------------------------------------------------------------------------
---------------------------------------------------------------------------------------------------------------------------------------
---------------------------------------------------------------------------------------------------------------------------------------
--13-13-13-13-13-13-13-13-13---11-11--10---10-10-10-10-10-10-10-10-10---11-11--13----------------
--13-13-13-13-13-13-13-13-13---11-11--10---10-10-10-10-10-10-10-10-10---11-11--13----------------
--11-11-11-11-11-11-11-11-11----9---9----8-----8---8---8---8--8---8---8---8--8-----9---9--13----------------


----------------------------------------------------------------------------------------------------------------------------------------
----------------------------------------------------------------------------------------------------------------------------------------
----------------------------------------------------------------------------------------------------------------------------------------
--13-13-13-13-13-13-13-13-13---11-11--10---10-10-10-10-10-10-10-10-10---11-11--13----------------
--13-13-13-13-13-13-13-13-13---11-11--10---10-10-10-10-10-10-10-10-10---11-11--13----------------
--11-11-11-11-11-11-11-11-11----9---9----8-----8---8---8---8--8---8---8---8--8-----9---9--13----------------


----------------------------------------------------------------------------------------------------------------------------------------
----------------------------------------------------------------------------------------------------------------------------------------
----------------------------------------------------------------------------------------------------------------------------------------
--13-13-13-13-13-13-13-13-13-13------------------5-5-5-5-5-5-5-5-5-5--------------------------------------------
--13-13-13-13-13-13-13-13-13-13------------------5-5-5-5-5-5-5-5-5-5--------------------------------------------
--11-11-11-11-11-11-11-11-11-11------------------3-3-3-3-3-3-3-3-3-3--------------------------------------------

[ Tab from: http://www.guitartabs.cc/tabs/s/sloppy_meateaters/who_cares_tab.html ]
----------------------------------------------------------------------------------------------------------------------------------------
----------------------------------------------------------------------------------------------------------------------------------------
----------------------------------------------------------------------------------------------------------------------------------------
--10-10-10-10-10-10-10-10-10-10---------------6-6-6-6-6-6-6-6-6-6-----------------------------------------------
--10-10-10-10-10-10-10-10-10-10---------------6-6-6-6-6-6-6-6-6-6-----------------------------------------------
---8---8---8---8--8---8---8---8--8---8----------------4-4-4-4-4-4-4-4-4-4-----------------------------------------------


----------------------------------------------------------------------------------------------------------------------------------------
----------------------------------------------------------------------------------------------------------------------------------------
----------------------------------------------------------------------------------------------------------------------------------------
--13-13-13-13-13-13-13-13-13-13------------------5-5-5-5-5-5-5-5-5-5--------------------------------------------
--13-13-13-13-13-13-13-13-13-13------------------5-5-5-5-5-5-5-5-5-5--------------------------------------------
--11-11-11-11-11-11-11-11-11-11------------------3-3-3-3-3-3-3-3-3-3--------------------------------------------


----------------------------------------------------------------------------------------------------------------------------------------
----------------------------------------------------------------------------------------------------------------------------------------
----------------------------------------------------------------------------------------------------------------------------------------
--10-10-10-10-10-10-10-10-10-10---------------6------------------------------------------------------------------------
--10-10-10-10-10-10-10-10-10-10---------------6------------------------------------------------------------------------
---8---8---8---8--8---8---8---8--8---8----------------4------------------------------------------------------------------------


----------------------------------------------------------------------------------------------------------------------------------------
----------------------------------------------------------------------------------------------------------------------------------------
----------------------------------------------------------------------------------------------------------------------------------------
--13-13-13--5--10--10-10-10--6-5-------------------------------------------------------------------------------------------   x3
--13-13-13--5--10--10-10-10--6-5-------------------------------------------------------------------------------------------
--11-11-11--3---8----8---8---8--4-3-------------------------------------------------------------------------------------------

this song is great
if you have any problems or corrections for this tabs
please let me know to jackiechan1717@hotmail.com
sloppy meat eaters rules
Comments