Sloppy Meateaters - Suddenly Forget Chords & Tabs

 

Suddenly Forget Chords & Tabs

Sloppy Meateaters Chords & Tabs

Version: 1 Type: Tab 0 ratings
1 star 2 stars 3 stars 4 stars 5 stars
comments

Suddenly Forget Tab

-------------------------------------------------------------------------------
	              SUDDENLY FORGET - Sloppy Meateaters
-------------------------------------------------------------------------------


Hi kids. Heres another SME song for you. TUNE 
LOW E DOWN TO D. HAVE FUN KIDDIES!!!

INTRO
GTR. ONE - REPEAT A LOT OF TIMES
e|-4--4--4--2--2--2--1--1--1--2--2--2--1--1--1--2--2--2----------------------|
B|-2--2--2--2--2--2--2--2--2--2--2--2--2--2--2--2--2--2----------------------|
G|---------------------------------------------------------------------------|
D|---------------------------------------------------------------------------|
A|---------------------------------------------------------------------------|
D|---------------------------------------------------------------------------|

GTR. TWO
e|------------------------------|--------------------------------------------|
B|------------------------------|--------------------------------------------|
G|-6----6-6-6-6-6-6-6-6-6-6-6-6-|-6-6-6-6-6-6-6-6-6-6-6-6--------------------|
D|-6----6-6-6-6-6-6-6-6-6-6-6-6-|-6-6-6-6-6-6-6-6-6-6-6-6-8-8-8-8-8-8-8-8-8--|
A|-4----4-4-4-4-4-4-4-4-4-4-4-4-|-4-4-4-4-4-4-4-4-4-4-4-4-8-8-8-8-8-8-8-8-8--|
D|------------------------------|-------------------------8-8-8-8-8-8-8-8-8--|

e|---------------------------------------------------------------------------|
B|---------------------------------------------------------------------------|
G|---------------------------------------------------------------------------|
D|-8-8-8-6-6-6-6-6-6-6-6-6-6-6-6-4-4-4-4-4-4-4-4-4-4-4-4---------------------|
A|-8-8-8-6-6-6-6-6-6-6-6-6-6-6-6-4-4-4-4-4-4-4-4-4-4-4-4---------------------|
D|-8-8-8-6-6-6-6-6-6-6-6-6-6-6-6-4-4-4-4-4-4-4-4-4-4-4-4---------------------|

VERSES
GTR. ONE - REPEAT 2 TIMES.
e|---------------------------------------------------------------------------|
B|---------------------------------------------------------------------------|
G|-6-6-6-6-6-6-6-6-6-6-6-6---------------------------------------------------|
D|-6-6-6-6-6-6-6-6-6-6-6-6-4-4-4-4-4-4-4-4-4-4-4-4-8-8-8-8-8-8-8-8-8-8-8-8---|
A|-4-4-4-4-4-4-4-4-4-4-4-4-4-4-4-4-4-4-4-4-4-4-4-4-8-8-8-8-8-8-8-8-8-8-8-8---|
D|-------------------------4-4-4-4-4-4-4-4-4-4-4-4-8-8-8-8-8-8-8-8-8-8-8-8---|

e|---------------------------------------------------------------------------|
B|---------------------------------------------------------------------------|
G|---------------------------------------------------------------------------|
D|-4-4-4-4-4-4-4-4-4-4-4-4-4-------------------------------------------------|
A|-4-4-4-4-4-4-4-4-4-4-4-4-4-------------------------------------------------|
E|-4-4-4-4-4-4-4-4-4-4-4-4-4-------------------------------------------------|

GTR. TWO
HARMONICS = `
e|---------------------------------------------------------------------------|
B|---------------------------------------------------------------------------|
G|---------------------------------------------------------------------------|
D|-------`5------------------------------------------------------------------|
A|----`5---------------------------------------------------------------------|
D|-`5------------------------------------------------------------------------|

PRE-CHORUS - Involves both Guitars
GTR. ONE
e|---------------------------------------------------------------------------|
B|---------------------------------------------------------------------------|
G|-------------------------6-6-6-6-6-6-6-6-6-6-6-6---------------------------|
D|-1-1-1-1-1-1-4-4-4-4-4-4-6-6-6-6-6-6-6-6-6-6-6-6-1-1-1-1-1-1-4-4-4-4-4-4---|
A|-1-1-1-1-1-1-4-4-4-4-4-4-4-4-4-4-4-4-4-4-4-4-4-4-1-1-1-1-1-1-4-4-4-4-4-4---|
D|-1-1-1-1-1-1-4-4-4-4-4-4-------------------------1-1-1-1-1-1-4-4-4-4-4-4---|

e|---------------------------------------------------------------------------|
B|---------------------------------------------------------------------------|
G|-6-6-6-6-6-6-------------------------------------3-3-3-3-3-3-3-3-3-3-3-3---|
D|-6-6-6-6-6-6-6-6-6-6-6-6-1-1-1-1-1-1-4-4-4-4-4-4-3-3-3-3-3-3-3-3-3-3-3-3---|
A|-4-4-4-4-4-4-6-6-6-6-6-6-1-1-1-1-1-1-4-4-4-4-4-4-1-1-1-1-1-1-1-1-1-1-1-1---|
D|-------------6-6-6-6-6-6-1-1-1-1-1-1-4-4-4-4-4-4---------------------------|
[ Tab from: http://www.guitartabs.cc/tabs/s/sloppy_meateaters/suddenly_forget_tab.html ]
e|---------------------------------------------------------------------------|
B|---------------------------------------------------------------------------|
G|-5-5-5-5-5-5-5-5-5-5-5-5-6-6-6-6-6-6-6-6-6-6-6-6---------------------------|
D|-5-5-5-5-5-5-5-5-5-5-5-5-6-6-6-6-6-6-6-6-6-6-6-6-6-6-6-6-6-6-6-6-6-6-6-6---|
A|-3-3-3-3-3-3-3-3-3-3-3-3-4-4-4-4-4-4-4-4-4-4-4-4-6-6-6-6-6-6-6-6-6-6-6-6---|
D|-------------------------------------------------6-6-6-6-6-6-6-6-6-6-6-6---|
                                                   X X X X X X
GTR. TWO is the little solos in the background.
   FIRST SOLO                        SECOND SOLO
e|----2--1-----2--1----       e|----1--2--1----------|
B|-2--------2--------2-       B|-2-----------2--1--2-|
G|---------------------       G|---------------------|
D|---------------------       D|---------------------|
A|---------------------       A|---------------------|
D|---------------------       D|---------------------|

CHORUS - REPEAT TWICE
e|---------------------------------------------------------------------------|
B|---------------------------------------------------------------------------|
G|-6-6-6-6-6-6-6-6-6-6-6-6---------------------------------------------------|
D|-6-6-6-6-6-6-6-6-6-6-6-6-6-6-6-6-6-6-6-6-6-6-6-6-8-8-8-8-8-8-8-8-8-8-8-8---|
A|-4-4-4-4-4-4-4-4-4-4-4-4-6-6-6-6-6-6-6-6-6-6-6-6-8-8-8-8-8-8-8-8-8-8-8-8---|
D|-------------------------6-6-6-6-6-6-6-6-6-6-6-6-8-8-8-8-8-8-8-8-8-8-8-8---|

e|---------------------------------------------------------------------------|
B|---------------------------------------------------------------------------|
G|---------------------------------------------------------------------------|
D|-4-4-4-4-4-4-4-4-4-4-4-4---------------------------------------------------|
A|-4-4-4-4-4-4-4-4-4-4-4-4---------------------------------------------------|
D|-4-4-4-4-4-4-4-4-4-4-4-4---------------------------------------------------|

VERSE
Let Ring = .
e|-------------------------------------|-------------------------------------|
B|-------------------------------------|-------------------------------------|
G|-6-----------------------------------|--8-6--------------------------------|
D|-6-----------------------------------|--8-6--------------------------------|
A|-4-----------------------------------|--6-4--------------------------------|
D|-------------------------------------|-------------------------------------|
   .                                        . 
e|---------------------------------------------------------------------------|
B|---------------------------------------------------------------------------|
G|-6-6-6-6-6-6-6-6-6-6-6-6-6-------------------------------------------------|
D|-6-6-6-6-6-6-6-6-6-6-6-6-6-4-4-4-4-4-4-4-4-4-4-4-4-------------------------|
A|-4-4-4-4-4-4-4-4-4-4-4-4-4-4-4-4-4-4-4-4-4-4-4-4-4-------------------------|
D|---------------------------4-4-4-4-4-4-4-4-4-4-4-4-------------------------|

- Repeat PRE-CHORUS
- Repeat CHORUS
- GTR. ONe of INTRO is repeated several times muted.

BREAKDOWN
e|---------------------------------------------------------------------------|
B|---------------------------------------------------------------------------|
G|-------------------------------------------------6-6-6-6-6-6-6-6-6-6-6-6---|
D|-1-1-1-1-1-1-1-1-1-1-1-1-4-4-4-4-4-4-4-4-4-4-4-4-6-6-6-6-6-6-6-6-6-6-6-6---|
A|-1-1-1-1-1-1-1-1-1-1-1-1-4-4-4-4-4-4-4-4-4-4-4-4-4-4-4-4-4-4-4-4-4-4-4-4---|
D|-1-1-1-1-1-1-1-1-1-1-1-1-4-4-4-4-4-4-4-4-4-4-4-4---------------------------|

e|---------------------------------------------------------------------------|
B|---------------------------------------------------------------------------|
G|---------------------------------------------------------------------------|
D|-6-6-6-6-6-6-6-6-6-6-6-6-1-1-1-1-1-1-1-1-1-1-1-1-4-4-4-4-4-4-4-4-4-4-4-4---|
A|-6-6-6-6-6-6-6-6-6-6-6-6-1-1-1-1-1-1-1-1-1-1-1-1-4-4-4-4-4-4-4-4-4-4-4-4---|
D|-6-6-6-6-6-6-6-6-6-6-6-6-1-1-1-1-1-1-1-1-1-1-1-1-4-4-4-4-4-4-4-4-4-4-4-4---|

e|---------------------------------------------------------------------------|
B|---------------------------------------------------------------------------|
G|-6-6-6-6-6-6-------------------------------------6-6-6-6-6-6---------------|
D|-6-6-6-6-6-6-6-6-6-6-6-6-4-4-4-4-4-4-4-4-4-4-4-4-6-6-6-6-6-6-6-6-6-6-6-6---|
A|-4-4-4-4-4-4-6-6-6-6-6-6-4-4-4-4-4-4-4-4-4-4-4-4-4-4-4-4-4-4-6-6-6-6-6-6---|
D|-------------6-6-6-6-6-6-4-4-4-4-4-4-4-4-4-4-4-4-------------6-6-6-6-6-6---|

e|---------------------------------------------------------------------------|
B|---------------------------------------------------------------------------|
G|-------------------------3-3-3-3-3-3-5-5-5-5-5-5-6-6-6-6-6-6-6-6-6-6-6-6---|
D|-4-4-4-4-4-4-4-4-4-4-4-4-3-3-3-3-3-3-5-5-5-5-5-5-6-6-6-6-6-6-6-6-6-6-6-6---|
A|-4-4-4-4-4-4-4-4-4-4-4-4-1-1-1-1-1-1-3-3-3-3-3-3-4-4-4-4-4-4-4-4-4-4-4-4---|
D|-4-4-4-4-4-4-4-4-4-4-4-4---------------------------------------------------|

e|---------------------------------------------------------------------------|
B|---------------------------------------------------------------------------|
G|-3-3-3-3-3-3-5-5-5-5-5-5-6-----------6----6-6-6-6-6-6-6-6-6-6-6-6----------|
D|-3-3-3-3-3-3-5-5-5-5-5-5-6-----7-----6----6-6-6-6-6-6-6-6-6-6-6-6----------|
A|-1-1-1-1-1-1-3-3-3-3-3-3-4-----7-----4----4-4-4-4-4-4-4-4-4-4-4-4----------|
D|-------------------------------7-------------------------------------------|
                                            x x x x x x

- Repeat CHORUS 
- Repeat Intro (Both Guitars)

===============================================================================
Comments