Sloppy Meateaters - So Long Chords & Tabs

 

So Long Chords & Tabs

Sloppy Meateaters Chords & Tabs

Version: 1 Type: Tab 0 ratings
1 star 2 stars 3 stars 4 stars 5 stars
comments

So Long Tab

Author/Artist: Sloppy Meateaters
Title: So Long
Album: Forbidden Meat
Transcribed by: Andrew Biles
Email: im_starting_2_like_th@barmaid.co.uk

Doubt many people are gonna have a look at this, but this is personally
my fav song off the album, the intro is so cool.

------------------------------------------------------------------------------
------------------------------------3-----------------------------------------
--4--5--4--7--4--5--4------4--5--4-----5--4--2--0-----------------------------
-5--5--5--5--5--5--5--5-4-2--2--2--2--0--0--0--0---2--5--2--5--4--7--4--7-----
--------------------------------------------------3--3--3--3--5--5--5--5------
------------------------------------------------------------------------------
                                                                              

------------------------------------------------------------------------------
------------------------------------------------------------------------------
-44-444-455544-477-777-744-444-444-444-4555-444-77-777-7555-444---------------
-55-555-555555-555-555-555-555-522-222-2222-222-44-444-4444-444---------------
------------------------------------------------------------------------------
------------------------------------------------------------------------------
                                                                              

------------------------------------------------------------------------------
------------------------------------------------------------------------------
-5555555555777777-9-11--------------------------------------------------------
-5555555555777777-9-11--------------------------------------------------------
-3333333333555555-7-9---------------------------------------------------------
------------------------------------------------------------------------------
                                                                              

------------------------------------------------------------------------------
------------------------------------------------------------------------------
--------------------------5----------7----------------------------------------
-5------------2-----------5----------7--------5--------2----------------------
-5------------2-----------3----------5--------5--------2----------------------
-3------------0-------------------------------3--------0----------------------
 Hanging out, finally, I get to see you here with me, did you ever think      

------------------------------------------------------------------------------
------------------------------------------------------------------------------
--------5-----------7---------------------------------------------------------
--------5-----------7---------------------------------------------------------
--------3-----------5---------------------------------------------------------
------------------------------------------------------------------------------
 you'd see the day finally run away                                           

------------------------------------------------------------------------------
------------------------------------------------------------------------------
----------5----------------------------------------------5--------------------
----2-----5-------------5--------------4----2------------5--------------5-----
----2-----3-------------5--------------4----2------------3--------------5-----
----0-------------------3--------------2----0---------------------------3-----
 I know that it feels unfair, we'll be just fine, don't give in to all fears, 

------------------------------------------------------------------------------
------------------------------------------------------------------------------
-------7-----------555444555777-----------------------------------------------
-------7-----------555444555777-----------------------------------------------
-------5-----------333222333555-----------------------------------------------
------------------------------------------------------------------------------
 your heart won't lie                                                         

------------------------------------------------------------------------------
------------------------------------------------------------------------------
-----------------7--------------------5---------------------------------------
----5------------7-------2------------5---------5-----------------------------
----5------------5-------2------------3---------5-----------------------------
----3--------------------0----------------------3-----------------------------
 So long, it's been forever, my heart belongs to you and never think that     

------------------------------------------------------------------------------
------------------------------------------------------------------------------
--7-----------------------------5---------------------------------------------
--7---------------2-------------5---------------------------------------------
--5---------------2-------------3---------------------------------------------
------------------0-----------------------------------------------------------
 I'm not strong enough to hold this all together                              

------------------------------------------------------------------------------
------------------------------------------------------------------------------
---------------7-7-7-7--5-5-55-5-44-4-44-5-77-7-77-7-55-5-55-5----------------
-5-5-5-5-2-2-2-7-7-7-7--5-5-55-5-44-4-44-5-77-7-77-7-55-5-55-5----------------
-5-5-5-5-2-2-2-5-5-5-5--3-3-33-3-22-2-22-3-55-5-55-5-33-3-33-3----------------
-3-3-3-3-0-0-0----------------------------------------------------------------
                        Pm....................................                

------------------------------------------------------------------------------
------------------------------------------------------------------------------
----------------------------5--------7----------------------------------------
--5----------2--------------5--------7--------5----------2--------------------
--5----------2--------------3--------5--------5----------2--------------------
--3----------0--------------------------------3----------0--------------------
 Say goodbye a thousand times, just to hear you say, your on your way, face   

------------------------------------------------------------------------------
------------------------------------------------------------------------------
--------5----------7----------------------------------------------------------
--------5----------7----------------------------------------------------------
--------3----------5----------------------------------------------------------
------------------------------------------------------------------------------
 it you're stuck with me, and all 30 personalities                            

------------------------------------------------------------------------------
------------------------------------------------------------------------------
----------5----------------------------------------------5--------------------
----2-----5-------------5--------------4----2------------5--------------5-----
----2-----3-------------5--------------4----2------------3--------------5-----
----0-------------------3--------------2----0---------------------------3-----
 I know that it feels unfair, we'll be just fine, don't give in to all fears, 

------------------------------------------------------------------------------
------------------------------------------------------------------------------
-------7-----------555444555777-----------------------------------------------
-------7-----------555444555777-----------------------------------------------
-------5-----------333222333555-----------------------------------------------
------------------------------------------------------------------------------
 your heart won't lie                                                         
[ Tab from: http://www.guitartabs.cc/tabs/s/sloppy_meateaters/so_long_tab.html ]
------------------------------------------------------------------------------
------------------------------------------------------------------------------
-----------------7--------------------5---------------------------------------
----5------------7-------2------------5---------5-----------------------------
----5------------5-------2------------3---------5-----------------------------
----3--------------------0----------------------3-----------------------------
 So long, it's been forever, my heart belongs to you and never think that     

------------------------------------------------------------------------------
------------------------------------------------------------------------------
--7-----------------------------5---------------------------------------------
--7---------------2-------------5---------------------------------------------
--5---------------2-------------3---------------------------------------------
------------------0-----------------------------------------------------------
 I'm not strong enough to hold this all together                              

------------------------------------------------------------------------------
------------------------------------------------------------------------------
-44-444-455544-477-777-744-444-444-444-4555-444-77-777-7555-444---------------
-55-555-555555-555-555-555-555-522-222-2222-222-44-444-4444-444---------------
------------------------------------------------------------------------------
------------------------------------------------------------------------------
                                                                              

------------------------------------------------------------------------------
------------------------------------------------------------------------------
-5-5-55-5-44-4-44-5-77-7-77-7-55-5-55-5--5-5-5-5-5-5-5-5-5-5-5-5-5-5-5-5--7---
-5-5-55-5-44-4-44-5-77-7-77-7-55-5-55-5--5-5-5-5-5-5-5-5-5-5-5-5-5-5-5-5--7---
-3-3-33-3-22-2-22-3-55-5-55-5-33-3-33-3--3-3-3-3-3-3-3-3-3-3-3-3-3-3-3-3--5---
------------------------------------------------------------------------------
 Pm........................................................................   

------------------------------------------------------------------------------
------------------------------------------------------------------------------
-7-7-7-7-7-7-7-7-7-7-7-7-7--7-9-11--------------------------------------------
-7-7-7-7-7-7-7-7-7-7-7-7-7--x-x-x---------------------------------------------
-5-5-5-5-5-5-5-5-5-5-5-5-5--5-7-9---------------------------------------------
------------------------------------------------------------------------------
 ................................                                             

------------------------------------------------------------------------------
------------------------------------------------------------------------------
---------7777777999999955555555--------777777779999999955555555---------------
-5555555577777779999999555555555555555577777777999999995555555555555555-------
-5555555555555557777777333333335555555555555555777777773333333355555555-------
-33333333----------------------33333333------------------------33333333-------
                                                                              

------------------------------------------------------------------------------
------------------------------------------------------------------------------
-7777777777-------------------------------------------------------------------
-7777777777-------------------------------------------------------------------
-5555555555-------------------------------------------------------------------
------------------------------------------------------------------------------
                                                                              

------------------------------------------------------------------------------
------------------------------------------------------------------------------
-12-12-12-12-12-12-11-11-11-14-14-14------------------------------------------
-x--x--x--x--x--x--x--x--x--x--x--x-------------------------------------------
-10-10-10-10-10-10-9--9--9--12-12-12------------------------------------------
------------------------------------------------------------------------------
  play 4 times                                                                

------------------------------------------------------------------------------
------------------------------------------------------------------------------
-16-16-16-16-16-16-16-16-16-11-11-11-16-16-16-16-16-16-17-17-17-12-12---------
-x--x--x--x--x--x--x--x--x--x--x--x--x--x--x--x--x--x--x--x--x--x--x----------
-14-14-14-14-14-14-14-14-14-9--9--9--14-14-14-14-14-14-15-15-15-10-10---------
------------------------------------------------------------------------------
                                                                              

------------------------------------------------------------------------------
------------------------------------------------------------------------------
-16-16-16-16-16-16-16-16-16-16-16-16-14-14-14-14-14-14-16-16-16-11-11-11------
-x--x--x--x--x--x--x--x--x--x--x--x--x--x--x--x--x--x--x--x--x--x--x--x-------
-14-14-14-14-14-14-14-14-14-14-14-14-12-12-12-12-12-12-14-14-14-9--9--9-------
------------------------------------------------------------------------------
                                                                              

------------------------------------------------------------------------------
------------------------------------------------------------------------------
-12-12-12-12-12-12-12-12-12-12-12-12-14-14-14-14-14-14-12-12-12-11-11-11-12---
-x--x--x--x--x--x--x--x--x--x--x--x--x--x--x--x--x--x--x--x--x--x--x--x--x----
-10-10-10-10-10-10-10-10-10-10-10-10-12-12-12-12-12-12-10-10-10-9--9--9--10---
------------------------------------------------------------------------------
                                                                              

------------------------------------------------------------------------------
------------------------------------------------------------------------------
-----------------7--------------------5---------------------------------------
----5------------7-------2------------5---------5-----------------------------
----5------------5-------2------------3---------5-----------------------------
----3--------------------0----------------------3-----------------------------
 So long, it's been forever, my heart belongs to you and never think that     

------------------------------------------------------------------------------
------------------------------------------------------------------------------
--7-----------------------------5-----------------5-----------------5---------
--7---------------2-------------5-----------------5-----------------5---------
--5---------------2-------------3-----------------3-----------------3---------
------------------0-----------------------------------------------------------
 I'm not strong enough to hold this all together, so long, so long, so long   

------------------------------------------------------------------------------
------------------------------------------------------------------------------
------5-------------5-----------------5---------------------------------------
------5-------------5-----------------5-----------------5---------------------
------3-------------3-----------------3-----------------5---------------------
--------------------------------------------------------3---------------------
 it's been forever, so long, so long, so long it's been forever               

------------------------------------------------------------------------------
------------------------------------3-----------------------------------------
--4--5--4--7--4--5--4------4--5--4-----5--4--2--0-----------------------------
-5--5--5--5--5--5--5--5-4-2--2--2--2--0--0--0--0---2--5--2--5--4--7--4--7-----
--------------------------------------------------3--3--3--3--5--5--5--5------
------------------------------------------------------------------------------
Comments