Sloppy Meateaters - Give Me Something Chords & Tabs

 

Give Me Something Chords & Tabs

Sloppy Meateaters Chords & Tabs

Version: 1 Type: Tab 0 ratings
1 star 2 stars 3 stars 4 stars 5 stars
comments

Give Me Something Tab

Sloppy Meateaters - Give Me Something

This is only about 1 + 1/2 minutes worth of the song but that is only as far as I have got so far and I'm not sure if it is 100% correct. But to me it sounds good to me.

Use standard tuning

Riff 1
[ Tab from: http://www.guitartabs.cc/tabs/s/sloppy_meateaters/give_me_something_tab.html ]
|--------------------------------------------------------------------------------------------
|----2---2---2---2---2---2---2---2---2---2---2---2---2---2---2---2-------------------
|--3---3---3---3---2---2---1---1---3---3---3---3---2---2---2---2---------------------
|--------------------------------------------------------------------------------------------
|--------------------------------------------------------------------------------------------
|--------------------------------------------------------------------------------------------

Riff 2

|---------------------------------------------------------------------
|---------------------------------------------------------------------
|---------------------------------------------------------------------
|--9-9-----9/7-7-7-7-7/9-9-9-9-9/7-7-7-7-7/9-9-9------------
|--9-9-----9/7-7-7-7-7/9-9-9-9-9/7-7-7-7-7/9-9-9------------
|--7-7-----7/5-5-5-5-5/7-7-7-7-7/5-5-5-5-5/7-7-7------------




From what I can tell so far:

Riff 1      x 4
Riff 2      x 2




Tabbed by Andrew Biles
Please mail me any corrections to im_starting_2_like_th@barmaid.co.uk
Comments